» » »

Cheap Trick, I Want You To Want Me Tabs (ver.1)

Artists:  A B C D E F G H I J K L M N O P Q R S T U V W X Y Z # 

I Want You To Want Me Tabs (ver.1)

Cheap Trick Tabs
 Rating:
3.5/5 (41 vote)
I Want You To Want Me lessons Tabs too difficult? Try these video lessons and learn fast
1
                I want you to want me!

cheap trick

Brian S


Intro :
e---------------------------------------------------------------|
b--17vvvvv--17---(17)------17---------------17---(17)-----------|
g--16bvvvv--16b--r16---14--16b--r16--14vvv--16bvvr16--14--------|
d---------------------------------------------------------5-----|
a---------------------------------------------------------5-----|
e---------------------------------------------------------3-----|

e-----------|-
b-----------|-
g-----------|-
d--4----2---|-
a--4----2---|-
e--2----0---|-

Verses are : all PM's
e---------------------------------------------------------------|
b---------------------------------------------------------------|
g---------------------------------------------------------------|
d---7-7-7-7--7-7-7-7--7-7-7-7--6-6-6-6---4-4-4-4-4-4-4--4-4-4-4-|
a---7-7-7-7--7-7-7-7--7-7-7-7--6-6-6-6---4-4-4-4-4-4-4--4-4-4-4-|
e---5-5-5-5--5-5-5-5--5-5-5-5--4-4-4-4---2-2-2-2-2-2-2--2-2-2-2-|
 I  want...

e----------------------|
b----------------------|
g--6-6-6-6---7---------|
d--6-6-6-6---7-etc...--|
a--4-4-4-4---5---------|
e----------------------|

fill :
e---------------------------20bvvvvv-20p19p17----------|
b---20---19--19---19---17---------------------20p17...-|
g----^----^---^---^----^-------------------------------|
d----^----^---^---^----^-------------------------------|
a----^----^---^---^----^-------------------------------|
e----^----^---^---^----^-------------------------------|
  I want  you to  want me

fill 2 :
e------------------------------------------------------------|
b--------------------------17------------17------------------|
g--------------------------16bvvr16p14---16bvvvr16p14--------|
d--------------------------------------16-------------16--16-|
a------------------------------------------------------------|
e------------------------------------------------------------|
 I want you to want me...

Solo 1:
e---------------------------------------------------------------|
b--14-----14-----14-----14-----14-----14------14----------------|
g-----16b----16b----16b----16b----16b----16b------16bvvvr16--14-|
d---------------------------------------------------------------|
a---------------------------------------------------------------|
e---------------------------------------------------------------|

e--------------------------------------------14-------17--20-|
b------------------------------------------------------------|
g-------------------------------------2--/14------/16--------|
d-16-16-14-14--13-13-11-11--9-9--7-7-------------------------|
a------------------------------------------------------------|
e------------------------------------------------------------|

solo 2:
e---17-----17----17----17----17----17----17----17-------------|
b------20b----20b---20b---20b---20b---20b---20b---20b---------|
g-------------------------------------------------------------|
d-------------------------------------------------------------|
a-------------------------------------------------------------|
e-------------------------------------------------------------|

e-----------------------------------------|
b--r20~~~~-20p17p15-----------------------|
g-------------------19p17-------17--19b...|
d-------------------------19p17-----------|
a-----------------------------------------|
e-----------------------------------------|
            
Submit corrections

comments powered by Disqus
↑ Back to top | Cheap Trick Tabs for I Want You To Want Me. Lyrics for acoustic guitar and electric guitar. 1 Tablatures and chords are parodies/interpretations of the original songs. You may use it for private study, scholarship, research or language learning purposes only