» » »

Cheap Trick, Big Eyes Tabs (ver.2)

Artists:  A B C D E F G H I J K L M N O P Q R S T U V W X Y Z # 

Big Eyes Tabs (ver.2)

Cheap Trick Tabs
 Rating:
4/5 (4 votes)
Big Eyes lessons Tabs too difficult? Try these video lessons and learn fast
1
                TUNING:  STANDARD   E A D G


12 STRING BASS ARRANGED FOR FOUR STRING BASS   HA HA 


GUITAR INTRO


G-------------------------4------3-7--------------------------4-----3-7--
D---------------1-5---2-5------4--------------------1-5---2-5-----4------
A----1-5------2----------------------------1-5----2----------------------
E--2-------------------------------------2------------------------------


BASS INTRO 

G-------------------------------------------------------------------
D-------------------------------------------------------------------
A--------------------------------------------------------------5-6-7
E-------------------------------------------------------------------


(GUITAR AND BASS TOGETHER HEREAFTER, EXCEPT WHERE INDICATED)

CHORUS

A----------------------1-2-1-0----------------------------1-2-1-0----
E--0-0-0-0-0-0-0-0-0-0---------3-0----0-0-0-0-0-0-0-0-0-0---------3-0


VERSE

     (G) IT'S NOT THE WAY YOU LOOK ??????
     (G) IT'S NOT THE WAY YOU WALK
     (C) YOUR EYES ARE SOMETHING GOOD
     (C) YOU KNOW THEY'RE CLEAR AND BRIGHT
     (G) IT'S NOT THE COLOR OF YOUR HAIR


CHORUS

A----------------------1-2-1-0----------------------------1-2-1-0-     
E--0-0-0-0-0-0-0-0-0-0---------3-0----0-0-0-0-0-0-0-0-0-0---------3-0--- 
BIG EYES            I K F I F T   (I KEEP FALL-ING FOR THOSE)

REPEAT CHORUS

VERSE TWO

     (G) YOU'RE SUCH A LOSING CAUSE
     (G) WHY DON'T YOU GO GET LOST
     (C) WHO SAYS YOU WRITE THE LAWS
     (G) YOU'RE SUCH A LOSING CAUSE GO ON GET OUTTA HERE


CHORUS 

BRIDGE

G---------------------------------------------------------------
D--2-1-2----------------------------2-1-2-------------1-5------------
A--------2-3-2-0---------2-5--------------2-3-2-0---2----------------
E--------------------2-3---------------------------------------

G--------------------------------------------------------------
D--2-1-2-------------------------2-1-2-----------------------1-5--
A--------2-3-2-0--------2-5------------2-3-2-0-------1-5---2------
E-------------------2-3----------------------------2--------------


BASS PLAYS THE BRIDGE THROUGH TWICE
GUITAR PLAYS THE BRIDGE ONCE AND SOLOS THE SECOND TIME


THIRD VERSE (BASS ONLY)

     (G) OH... IT'S NOT THE WAY YOU LOOK
     (G) IT'S NOT THE WAY YOU WALK
     (C) YOU EYES ARE SOMETHING GOOD
     (G) IT'S NOT THE COLOR OF YOUR HAIR  


CHORUS

INTRO  (BOTH GUITAR AND BASS) TWICE


OUTRO

A----------------------1-2-1-0--------------------------1-2-1-0-----1-2-1----
E--0-0-0-0-0-0-0-0-0-0---------3-0--0-0-0-0-0-0-0-0-0-0---------3-0-------3-0
   BIG EYES,           I K F I F T  BIG EYES            T K C I M NAME

A----------------------1-2-1-0-----1-2-1-0-----1-2-1-0-------------------
E--0-0-0-0-0-0-0-0-0-0---------3-0---------3-0---------3-0-0________(HOLD)


A CAPPELLA
     BIG EYES


A--1-2-1-0-----1-2-1-0-----
E----------3-0---------3-0-



                             -I'M HERE, I'M QUEER, I PLAY 5-STRING BASS
            
Submit corrections

comments powered by Disqus
↑ Back to top | Cheap Trick Tabs for Big Eyes. Lyrics for acoustic guitar and electric guitar. 1 Tablatures and chords are parodies/interpretations of the original songs. You may use it for private study, scholarship, research or language learning purposes only