» » »

Cheap Trick, Big Eyes Bass tabs (ver.1)

Artists:  A B C D E F G H I J K L M N O P Q R S T U V W X Y Z # 

Big Eyes Bass tabs (ver.1)

Cheap Trick Tabs
Rating:
5/5 (1 vote)
Big Eyes lessons Tabs too difficult? Try these video lessons and learn fast
                ===============================================================================
===============================================================================



G-------------------------------------|--------------------------------------|
D-------------------------------------|--------------------------------------|
A-------------------------1-2-1-0-----|-------------------------1-2-1-0------|
E---0-0-0-0---0-0-0-0-0-0---------3-0-|-0-0-0-0---0-0-0-0---0-0---------3-0--|

G--------------------------------------------------------------------|
D--------------------------------------------------------------------|
A--------------------------------------------------------------------|
E---3-3-3-3-3-3-3-3-3-3-3-3-3-3-3-3-3-3-3-3-3-3-3-3-3-3-3-3-3-3-3-3--|

G--------------------------------------------------------------------|
D--------------------------------------------------------------------|
A---3-3-3-3-3-3-3-3-3-3-3-3-3-3-3-3-3-3-3-3-3-3-3-3-3-3-3-3-3-3-3-3--|
E--------------------------------------------------------------------|

G-----------------------------------|----------------------------------|
D-----------------------------------|----------------------------------|
A-----------------------1-2-1-0-----|---------------------1-2-1-0------|
E---0-0-0-0-0-0-0-0-0-0---------3-0-|-0-0-0-0-0-0-0-0-0-0---------3-0--|

G-----------------------------------|----------------------------------|
D-----------------------------------|----------------------------------|
A-----------------------1-2-1-0-----|---------------------1-2-1-0------|
E---0-0-0-0-0-0-0-0-0-0---------3-0-|-0-0-0-0-0-0-0-0-0-0---------3-0--|

G--------------------------------------------------------------------|
D--------------------------------------------------------------------|
A--------------------------------------------------------------------|
E---3-3-3-3-3-3-3-3-3-3-3-3-3-3-3-3-3-3-3-3-3-3-3-3-3-3-3-3-3-3-3-3--|

G--------------------------------------------------------------------|
D--------------------------------------------------------------------|
A---3-3-3-3-3-3-3-3-3-3-3-3-3-3-3-3-3-3-3-3-3-3-3-3-3-3-3-3-3-3-3-3--|
E--------------------------------------------------------------------|

G-----------------------------------|----------------------------------|
D-----------------------------------|----------------------------------|
A-----------------------1-2-1-0-----|---------------------1-2-1-0------|
E---0-0-0-0-0-0-0-0-0-0---------3-0-|-0-0-0-0-0-0-0-0-0-0---------3-0--|

G-------------------------|---------------------|------------------------|
D---2-1-2---------------1-|-2-1-2-----------2-5-|-2-1-2---------------1--|
A---------2-3-2-0-----2---|-------2-3-2-0-2-----|-------2-3-2-0-----2----|
E-----------------2-3-----|---------------------|---------------2-3------|

G---------------------------0--|
D---2-1-2-------------0---1----|
A---------2-3-2-0---1---2------|
E-----------------2------------|

G--------------------------------------------------------------------|
D--------------------------------------------------------------------|
A--------------------------------------------------------------------|
E---3-3-3-3-3-3-3-3-3-3-3-3-3-3-3-3-3-3-3-3-3-3-3-3-3-3-3-3-3-3-3-3--|

G--------------------------------------------------------------------|
D--------------------------------------------------------------------|
A---3-3-3-3-3-3-3-3-3-3-3-3-3-3-3-3-3-3-3-3-3-3-3-3-3-3-3-3-3-3-3-3--|
E--------------------------------------------------------------------|

G---------------------------------------------------------------------|
D---------------------------------------------------------------------|
A---------------------------------------------------------------------|
E---3-3-3-3-3-3-3-3-3-3-3-3-3-3-3-3-3-3-3-3-3-3-3-3-3-3-3-3-3-3-3-3/8-|

G------------------------------------------------------------------|
D------------------------------------------------------------------|
A------------------------------------------------------------------|
E---8-8-8-8-8-8-8-8-8-8-8-8-8-8-8-8-8-8-8-8-8-8-8-8-8-8-8-8-8-8-8--|

G-----------------------------------|----------------------------------|
D-----------------------------------|----------------------------------|
A-----------------------1-2-1-0-----|---------------------1-2-1-0------|
E---0-0-0-0-0-0-0-0-0-0---------3-0-|-0-0-0-0-0-0-0-0-0-0---------3-0--|

G-----------|---------|---------|-----7---8-12-9-11--|
D-------2-4-|-----2-4-|-----2-4-|---8---9------------|
A-----2-----|---2-----|---2-----|-9------------------|
E---2-------|-2-------|-2-------|--------------------|

G-----------------------------------|---------------------------------|
D-----------------------------------|---------------------------------|
A-----------------------1-2-1-0-----|---------------------1-2-1-0-----|
E---0-0-0-0-0-0-0-0-0-0---------3-0-|-0-0-0-0-0-0-0-0-0-0---------3-0-|

G----------------|
D----------------|
A---1-2-1-0------|
E-----------3-0--|

G-----------------------------------|--------------|
D-----------------------------------|--------------|
A-----------------------1-2-1-0-----|-1-2-1-0------|
E---0-0-0-0-0-0-0-0-0-0---------3-0-|---------3-0--|

G---------------|-------------|--------------|
D---------------|-------------|--------------|
A---1-2-1-0-----|-1-2-1-0-----|-1-2-1-0------|
E-----------3-0-|---------3-0-|---------3-0--|


=============================================================================
            

comments powered by Disqus
↑ Back to top | Cheap Trick Bass for Big Eyes. Lyrics for acoustic guitar and electric guitar. Tablatures and chords are parodies/interpretations of the original songs. You may use it for private study, scholarship, research or language learning purposes only