» » »

Pieces Tabs (ver.1)

Artists:  A B C D E F G H I J K L M N O P Q R S T U V W X Y Z # 

Pieces Tabs (ver.1)

Chase And Status
Rating:
0/5 (0 votes)

Hard to play? Try these video lessons and learn fast.
                I think this is corect. 
Standart tuning E.

E-----------------------------------------------------------------------|
B-----------------------------------------------------------------------|
G-----------------------------------------------------------------------|
D-6-6-6-6-6-6-6-6-6-9-9-9-9-9-9-9-9-4-4-4-4-4-4-4-4-2-2-2-2-2-2-2-2-----|
A-6-6-6-6-6-6-6-6-6-9-9-9-9-9-9-9-9-4-4-4-4-4-4-4-4-2-2-2-2-2-2-2-2-----|
E-4-4-4-4-4-4-4-4-4-7-7-7-7-7-7-7-7-2-2-2-2-2-2-2-2-0-0-0-0-0-0-0-0-----|
       You don't care        About me      Anymore,


E-----------------------------------------------------------------------|
B-----------------------------------------------------------------------|
G-----------------------------------------------------------------------|
D-6-6-6-6-6-6-6-6-6-9-9-9-9-9-9-9-9-4-4-4-4-4-4-4-4-2-2-2-2-2-2-2-2-----|
A-6-6-6-6-6-6-6-6-6-9-9-9-9-9-9-9-9-4-4-4-4-4-4-4-4-2-2-2-2-2-2-2-2-----|
E-4-4-4-4-4-4-4-4-4-7-7-7-7-7-7-7-7-2-2-2-2-2-2-2-2-0-0-0-0-0-0-0-0-----|
Thats why you, you wanna break my heart,    Into pieces on the floor.




My first tab, hope its correctly    | I love you all guitarists :)
            
Hard to play? Try these video lessons and learn fast. | Correct




comments powered by Disqus
↑ Back to top | Tablatures and chords are parodies/interpretations of the original songs. You may use it for private study, scholarship, research or language learning purposes only