» » »

Pieces Tabs (ver.3)

Artists:  A B C D E F G H I J K L M N O P Q R S T U V W X Y Z # 

Pieces Tabs (ver.3)

Chase And Status
Rating:
0/5 (0 votes)

Tabs too difficult? Try these video lessons and learn fast.
                Chase And Status - Pieces (Ft. Plan B)


Standard Tuning

E:-------------------------------------------------|
B:-------------------------------------------------|
G:-------------------------------------------------|
D:-6-6-6-6-6-9-9-9-9-9-9-4-4-4-4-4-4-2-2-2-2-2-2---|
A:-6-6-6-6-6-9-9-9-9-9-9-4-4-4-4-4-4-2-2-2-2-2-2---|
E:-4-4-4-4-4-7-7-7-7-7-7-2-2-2-2-2-2-0-0-0-0-0-0---| x5

e:------|
B:------|
G:------|
D:-6~---|
A:-6~---|
E:-4~---| let the last chord ring


Strum these notes at the end of the build-up: (up and down pattern)

e:--------------------|
B:--------------------|
G:--------------------|
D:-4-----------2------|
A:-4-----------2------|
E:-2-(x12)-----0-(x12)|


Play this twice over

E:----------------------|
B:----------------------|
G:----------------------|
D:-6--6-6-6-5-5-4-4-----|
A:-6--6-6-6-5-5-4-4-----|
E:-4--4-4-4-3-3-2-2-----|

E:---------------------|
B:---------------------|
G:---------------------|
D:-6-6-5-5-4~----------|
A:-6-6-5-5-4~----------|
E:-4-4-3-3-2~----------|

E:----------------------|
B:----------------------|
G:----------------------|
D:-6--6-6-6-5-5-444-----|
A:-6--6-6-6-5-5-444-----|
E:-4--4-4-4-3-3-222-----| (3 seperate chords)

E:----------------------|
B:----------------------|
G:----------------------|
D:-4--4-6-6-8-8-10~-----|
A:-4--4-6-6-8-8-10~-----|
E:-2--2-4-4-6-6-8~------|



Strum these notes: (up and down pattern)

e:--------------------|
B:--------------------|
G:--------------------|
D:-4-----------2------|
A:-4-----------2------|
E:-2-(x12)-----0-(x12)|



(Play the main riff twice over again)



Then strum these notes: (up and down pattern)

e:----------------------------------------|
B:----------------------------------------|
G:----------------------------------------|
D:-4-------6-------5------4------0--------|
A:-4-------6-------5------4------0--------|
E:-2-(x6)--4-(x6)--3-(x6)-2-(x6)-2-(x12)--|

(slight pause)

e:-------------------------|
B:-------------------------|
G:-------------------------|
D:-4-------6-------8-------|
A:-4-------6-------8-------|
E:-2-(x12)-4-(x6)--6-(x6)--| x2

e:------------------------------------------|
B:------------------------------------------|
G:------------------------------------------|
D:-4-------6-------8------10-------9--------|
A:-4-------6-------8------10-------9--------|
E:-2-(x12)-4-(x6)--6-(x6)-8--(x12)-7-(x11)--|
 

Piano Part:

e:--------------------9----|
B:----11----11---11--------|
G:--9----11----9----9------|
D:-------------------------|
A:-------------------------|
E:-------------------------| x4

E:-------------------------------------------------|
B:-------------------------------------------------|
G:-------------------------------------------------|
D:-6-6-6-6-6-9-9-9-9-9-9-4-4-4-4-4-4-2-2-2-2-2-2---|
A:-6-6-6-6-6-9-9-9-9-9-9-4-4-4-4-4-4-2-2-2-2-2-2---|
E:-4-4-4-4-4-7-7-7-7-7-7-2-2-2-2-2-2-0-0-0-0-0-0---| x2

E:------------------------|
B:------------------------|
G:------------------------|
D:-6~----9~----4~----2~---|
A:-6~----9~----4~----2~---|
E:-4~----7~----2~----0~---| x1


Strum these notes at the end of the build-up: (up and down pattern)

e:--------------------|
B:--------------------|
G:--------------------|
D:-4-----------2------|
A:-4-----------2------|
E:-2-(x12)-----0-(x12)|


Play the main riff twice over


Strum these notes at the end of the build-up: (up and down pattern)

e:----------------------|
B:----------------------|
G:----------------------|
D:-6-------4------2-----|
A:-6-------4------2-----|
E:-4-(x12)-2-(x6)-0-(x6)|

Play the main riff once over


Then strum these notes: (up and down pattern)

e:----------------------------------------------------|
B:----------------------------------------------------|
G:----------------------------------------------------|
D:-4-------6-------5------4------2-------4------2-----|
A:-4-------6-------5------4------2-------4------2-----|
E:-2-(x6)--4-(x6)--3-(x6)-2-(x6)-0-(x12)-2-(x6)-0-(x6)|

e:---------------------------------------|
B:---------------------------------------|
G:---------------------------------------|
D:-6-------8------10------4-------2------|
A:-6-------8------10------4-------2------|
E:-4-(x12)-6-(x6)-8--(x6)-2-(x12)-0-(x12)|

e:----------------------------------------|
B:----------------------------------------|
G:----------------------------------------|
D:-6-------11-------5------4------2-------|
A:-6-------11-------5------4------2-------|
E:-4-(x6)--9--(x12)-3-(x6)-2-(x6)-0-(x12)-|
            
Tabs too difficult? Try these video lessons and learn fast.


comments powered by Disqus
↑ Back to top | Tablatures and chords are parodies/interpretations of the original songs. You may use it for private study, scholarship, research or language learning purposes only