>
 >
Heartbeat 1

Heartbeat 1 Guitar Tabs

Chase And Status - Heartbeat 1 chords, tabs, tablatures, lyrics

Guitar lessons | Add/correct | Request | Top 50 tabs Artists:  A B C D E F G H I J K L M N O P Q R S T U V W X Y Z 0-9

Heartbeat 1 Guitar Tabs – Chase And Status

CD, Sheet music, Poster

Do you like Heartbeat 1? Share with your friends now
TabsTabs v2
HeartBeat - Nneka (Chase and Status)
Drop D
This is how I play it, I think the other tabs sound a little off tbh.
My first ever tab and it is meant as a GUIDE, don't read into it too deeply
play what you think it should be.
 


Chorus

e----------------------------------------------------------------------|
B----------------------------------------------------------------------|
G----------------------------------------------------------------------|
D----------------------------------------------------------------------|
A--9-9-9-9-9-9-9-9-9-9-9-9-9-9-9-9-5-5-5-5-5-5-5-5-7-7-7-7-7-7-7-7-----|
D--9-9-9-9-9-9-9-9-9-9-9-9-9-9-9-9-5-5-5-5-5-5-5-5-7-7-7-7-7-7-7-7-----|
   . . . . . . . . . . . . . . . . . . . . . . . . . . . . . . . .        x4

(If you want, you can slowly make your palm-mute dirtier towards the end for build-up)

Verses 2&3

e---------------------------------------------|
B---------------------------------------------|
G---------------------------------------------|
D--9---12~---7---11~---5---9~---7---11~-------|
A--9---------7---------5--------7-------------|
D--9---------7---------5--------7-------------|

e---------------------------------------------|
B---------------------------------------------|
G---------------------------------------------|
D--9---12~---7---11~---5---9~---7---X---------|
A--9---------7---------5--------7-------------|
D--9---------7---------5--------7-------------|        x2

Solo

e----------------------------------------------------------------------|
B----------------------------------------------------------------------|
G----------------------------------------------------------------------|
D--9-9-9--------------------7-7-7----------5-5-5---9-9-9-----7-7-7-----|
A--9-9-9--------------------7-7-7----------5-5-5-------------7-7-7-----|
D--9-9-9----12-12-12-1212---7-7-7---15/----5-5-5-------------7-7-7-----|

e----------------------------------------------------------------------|
B----------------------------------------------------------------------|
G----------------------------------------------------------------------|
D--9-9-9---12-1212------7-7-7---14-1414------5-5-5---9~----7-7-7-7-----|
A--9-9-9----------------7-7-7----------------5-5-5---------7-7-7-7-----|
D--9-9-9----------------7-7-7----------------5-5-5---------7-7-7-7-----|

Last Chorus

e-------------------------------------------------------------|
B-------------------------------------------------------------|
G-------------------------------------------------------------|
D--9-9-9-9-9-9-9-9---5-5-5-5---7-7-7-7------------------------|
A--9-9-9-9-9-9-9-9---5-5-5-5---7-7-7-7------------------------|
D--9-9-9-9-9-9-9-9---5-5-5-5---7-7-7-7------------------------|

e-------------------------------------------------------------|
B-------------------------------------------------------------|
G-------------------------------------------------------------|
D--9-9-9-9-9-9-9-9---5-5-9~---7-7-11~-------------------------|
A--9-9-9-9-9-9-9-9---5-5------7-7-----------------------------|
D--9-9-9-9-9-9-9-9---5-5------7-7-----------------------------|

e-------------------------------------------------------------|
B-------------------------------------------------------------|
G-------------------------------------------------------------|
D--9-9-9-9-9-9-9-9---5-5-5-5---7-7-7-7------------------------|
A--9-9-9-9-9-9-9-9---5-5-5-5---7-7-7-7------------------------|
D--9-9-9-9-9-9-9-9---5-5-5-5---7-7-7-7------------------------|

e-------------------------------------------------------------|
B-------------------------------------------------------------|
G-------------------------------------------------------------|
D--9-9-12~--9-9-14~---5-5-9~---7-7-11~---9--------------------|
A--9-9------9-9-------5-5------7-7-------9--------------------|
D--9-9------9-9-------5-5------7-7-------9--------------------|





Comments


Popular Chase And Status tabs & chords
End Credits Bass Tabs
Embrace Chords
End Credits Intro Chords
Time Chords
End Credits 1 Tabs
No Problem Tabs
Pieces 2 Tabs
End Credits Ukulele
End Credits Intro Ukulele
Time Ukulele


Song lyrics



↑ Back to top | Tablatures and chords are parodies/interpretations of the original songs. You may use it for private study, scholarship, research or language learning purposes only
© 2014 AZChords.com Contact us | Privacy policy | DMCA | Add/correct tabs | Request tabs | Top 50 tabs