» » »

Ceremony, Kersed Tabs (ver.2)

Artists:  A B C D E F G H I J K L M N O P Q R S T U V W X Y Z # 

Kersed Tabs (ver.2)

Ceremony Tabs
 Rating:
4/5 (6 votes)
Kersed lessons Tabs too difficult? Try these video lessons and learn fast
                -------------------------------------------------------------------------------
-------------------------------------------------------------------------------

Tuning: Standard

Intro                                
e|-----------------------------------------------------|
B|----4------------------------------------------------|
G|--------------------------------------3--------------|
D|--------------------4----------------------------2~~~|
A|-------------------------------------------------2~~~|
E|-------------------------------------------------0~~~|

bass begins
             
e|-----------------------------------------------------|
B|-----------------------------------------------------|
G|-----------------------------------------------------|
D|--6~~~~~~~~~~~~~~~~~~~~~~--------9-7--6--------------|
A|--6~~~~bend&return~~~~~~~--------9-7--6--------------|
E|--4~~~~~~~~~~~~~~~~~~~~~~--------7-5--4--------------|


verse x2
e|-----------------------------------------------------|
B|-----------------------------------------------------|
G|---------------------7---7-7-------------------------|
D|-6---6-6-6-6-6-6-9-9-7---7-7-------------------------|
A|-6---6-6-6-6-6-6-9-9-5---5-5-------------------------|
E|-4---4-4-4-4-4-4-7-7---------------------------------|

e|-----------------------------------------------------|
B|-----------------------------------------------------|
G|-----------------------------------------------------|
D|-6---6-6-6-6-6-6-9-7--4--4-4-------------------------|
A|-6---6-6-6-6-6-6-9-7--4--4-4-------------------------|
E|-4---4-4-4-4-4-4-7-5--6--6-6-------------------------|

outro

e|-----------------------------------------------------|
B|-----------------------------------------------------|
G|-----------------------------------------------------|
D|-6-9-7-4~~~~~~~~~~~~~~~~~----------------------------|
A|-6-9-7-4~~~~~~~~~~~~~~~~~----------------------------|
E|-4-7-5-6~~~~~~~~~~~~~~~~~----------------------------|


| /  slide up
| \  slide down
| h  hammer-on
| p  pull-off
| ~  hold
| +  harmonic
| x  Mute note
===============================================================================
            
Submit corrections

comments powered by Disqus
↑ Back to top | Ceremony Tabs for Kersed. Lyrics for acoustic guitar and electric guitar. Tablatures and chords are parodies/interpretations of the original songs. You may use it for private study, scholarship, research or language learning purposes only