» » »

Kersed Bass tabs (ver.1)

Artists:  A B C D E F G H I J K L M N O P Q R S T U V W X Y Z # 

Kersed Bass tabs (ver.1)

Ceremony
Rating:
0/5 (0 votes)

Hard to play? Try these video lessons and learn fast.
                -------------------------------------------------------------------------------
-------------------------------------------------------------------------------


Tuning:Half-Step Down


Its pretty much the same as the guitar tab.

Intro
G|---------------------------------------------------------------------------|
D|---------------------------------------------------------------------------|
A|---------------------------------------------------------------------------|
E|-0~~~~---------------------------------------------------------------------|

Intro/Verse
G|---------------------------------------------------------------------------|
D|---------------------------------------------------------------------------|
A|---------------------5-5-5-5-----------------------------------------------| x4
E|-4-4-4-4-4-4-4-7-7-7---------4-4-4-4-4-4-4-7-5-4-4-4-4---------------------|

Outro
G|---------------------------------------------------------------------------|
D|---------------------------------------------------------------------------|
A|---------------------------------------------------------------------------|
E|-4-7-5-4~~~~~~~~~~~~~~~~~~~------------------------------------------------|


| /  slide up
| \  slide down
| h  hammer-on
| p  pull-off
| ~  vibrato
| +  harmonic
| x  Mute note
===============================================================================
            
Hard to play? Try these video lessons and learn fast. | Correct




comments powered by Disqus
↑ Back to top | Tablatures and chords are parodies/interpretations of the original songs. You may use it for private study, scholarship, research or language learning purposes only