» » »

Mierda Mundial Tabs (ver.1)

Artists:  A B C D E F G H I J K L M N O P Q R S T U V W X Y Z # 

Mierda Mundial Tabs (ver.1)

Casualties
Rating:
3/5 (2 votes)

Hard to play? Try these video lessons and learn fast.
                Artsist: Casualties


intro
e|---------------------------------------------------------------|
B|---------------------------------------------------------------|
G|-3/99-999-999-10-9-7--7------0-99-999-999-10-9-7------7------0-|
D|------------------------10-9-0-------------------10-9---10-9-0-|
A|---------------------------------------------------------------|
E|---------------------------------------------------------------|


Verse
e|-----------------------------------|
B|-----------------------------------|
G|-99-999-999-10-9-55555555-44444444-|
D|-99-999-999-10-9-55555555-44444444-|
A|-77-777-777--8-7-33333333-22222222-|
E|-----------------------------------|

Chorus
e|---------------------------------|
B|---------------------------------|
G|-999-555-777-777-999-555-444-444-|
D|-999-555-777-777-999-555-444-444-|
A|-777-333-555-555-777-333-222-222-|
E|---------------------------------|

Thing before Bridge
e|-------------------|
B|-------------------|
G|----5----7-444-444-|
D|-55-5-55-7-444-444-|
A|-55-3-55-5-222-222-|
E|-33---33-----------|

Bridge
e|---------------------------------|
B|---------------------------------|
G|-99-999-999-10-9-7------7------0-|
D|-------------------10-9---10-9-0-|
A|---------------------------------|
E|---------------------------------|

Outro:
e|-------------------------------------------------|
B|-------------------------------------------------|
G|-11-11-11-11-10-10-10-10-9999-9--9---9-----------|
D|-11-11-11-11-10-10-10-10-9999-9--9---9(let ring)-|
A|--9--9--9--9--8--8--8--8-7777-7--7---7-----------|
E|-------------------------------------------------|

Order:
Intro  (2X)
Verse  (4X)
Chorus (2X)
Verse  (4X)
Chorus (2X)
Verse  (4X)
Pre Bridge (4X)
Bridge (2X)
Verse  (2X)
Pre Bridge (3X)
Outro  (1X)
            
Hard to play? Try these video lessons and learn fast. | Correct




comments powered by Disqus
↑ Back to top | Tablatures and chords are parodies/interpretations of the original songs. You may use it for private study, scholarship, research or language learning purposes only