» » »

Made In N.Y.C. Bass tabs (ver.2)

Artists:  A B C D E F G H I J K L M N O P Q R S T U V W X Y Z # 

Made In N.Y.C. Bass tabs (ver.2)

Casualties
Rating:
0/5 (0 votes)

Hard to play? Try these video lessons and learn fast.
                "The Casualties - Made in N.Y.C

Intro
G|-------------------------------------|
D|-------------------------------------|
A|-9999999-7777777-9999999-11-12-13-11-|
E|-------------------------------------|

Verse/Chorus
G|-----------------------------------------------------------|
D|-----------------------------------------------------------|
A|-------7777777-------677767776-------777777-999999-9-8-7-5-|
E|-777777-------7777777----------777777----------------------|

G|------------------------------------------------------|
D|------------------------------------------------------|
A|-------7777777-------677767776-------777777-5555-9999-|
E|-777777-------7777777----------777777-----------------|

Verse/Chorus
G|-----------------------------------|
D|-----------------------------------|
A|-77--77-----------77--77--99999999-|
E|---77--77-55555555--77--77---------|

G|------------------------------------|
D|------------------------------------|
A|-----77-99----99-77----7777----9999-|
E|-7777-----7777-----7777----5555-----|
"            
Hard to play? Try these video lessons and learn fast. | Correct




comments powered by Disqus
↑ Back to top | Tablatures and chords are parodies/interpretations of the original songs. You may use it for private study, scholarship, research or language learning purposes only