» » »

Leaders Of Today Tabs (ver.3)

Artists:  A B C D E F G H I J K L M N O P Q R S T U V W X Y Z # 

Leaders Of Today Tabs (ver.3)

Casualties
Rating:
5/5 (2 votes)

Hard to play? Try these video lessons and learn fast.
                                            -LEADERS OF TODAY-
                        '''''''''''''''''''''''''''
                              THE CASUALTIES


e|-----------|
b|-----------|   intro.
g|-----------|
d|-9-7-------|
a|-7-5-7-2-2-|  hold last chord for 12 counts,
E|-----5-0-0-|  then do a 4 count chord slide.

e|--------------------------|          verse x4.
b|--------------------------|
g|--------------------------|  thats the chord progression for
d|-9-9-7-------9------------|  the verses, listen to the song
a|-7-7-5-7-5-5-7------------|  for the strumming on it all.
E|-------5-3-3--------------|

|--------------------------------------|
|---------7/4-4--7/4-4-------------7-7-|
|---------5/2-2--5/2-2-------------5-5-|   chorus x2.
|-4-4------------------4-4-----9-9-----|
|-2-2-7-7--------------2-2-7-7-7-7-----|
|-----5-5------------------5-5---------|

|---------------------|
|-12-12-12-12/10-8----|   lead guitar part before solo.
|-12-12-12---------9--| hold that (9) for 8 counts, then do solo.
|---------------------|
|---------------------|
|---------------------|

          ||fast part....................||
|--------------15-12--------------------------------------------------|
|-12-8---------------15/12-12-12----------12-10/12-12-12-10/12-12-12--|
|------7-9~7~9----------------------12/14-----------------------------|  solo.
|--------------------------------14-----------------------------------|
|---------------------------------------------------------------------|
|---------------------------------------------------------------------|

|-------------------------------------------------------------------------|
|-10/12-12-12-10/12-12-12-12/10-8-----------------------------------------|
|---------------------------------9-------------------------7-7/9-9-9-9-9-|
|-------------------------------------7/8/9-9-7/8/9-9-7/8/9---------------|
|-------------------------------------------------------------------------|
|-------------------------------------------------------------------------|

|-9-9-10/9-7---|
|------------9-|
|--------------|  end of solo, back to verse.
|--------------|
|--------------|
|--------------|

|---------------|
|---------------|
|-9-9-7-------9-|    2nd/alternate verse x4.
|-7-7-5-7-5-5-7-|
|-------5-3-3---|
|---------------|

|--------------------------------------|
|---------7/4-4--7/4-4-------------7-7-|
|---------5/2-2--5/2-2-------------5-5-|   last chorus x2.
|-4-4------------------4-4-----9-9-----|
|-2-2-7-7--------------2-2-7-7-7-7-----|
|-----5-5------------------5-5---------|

e|---------|
b|---------|    end of song (outro)
g|---------|
d|-9-7-----|
a|-7-5-7-2-|  hold last chord as desired...cuz youre done man.
E|-----5-0-|

                    __song order__
                   ''''''''''''''''
                        intro
                       verse x4
                       chorus x2
                       verse x4
                       chorus x2
                       verse x4
                       chorus x2
                    lead solo intro
                         solo
                       verse x4
                       chorus x2
                     alt. verse x4
                       chorus x2
                          end

       -have fun, it only took me like an hour to learn and tab, so you
          should enjoy pretty easily. they kick ass, go see em live.
            
Hard to play? Try these video lessons and learn fast. | Correct




comments powered by Disqus
↑ Back to top | Tablatures and chords are parodies/interpretations of the original songs. You may use it for private study, scholarship, research or language learning purposes only