» » »

Criminal Class Tabs (ver.2)

Artists:  A B C D E F G H I J K L M N O P Q R S T U V W X Y Z # 

Criminal Class Tabs (ver.2)

Casualties
Rating:
0/5 (0 votes)

Hard to play? Try these video lessons and learn fast.
                The Casualties
Criminal Class
*under chord= palm mute
b= bend note
 Intro
e|-----------------------------------------------------------------------|
B|-----------------------------------------------------------------------|
G|-----------------------------------------------------------------------|
D|9-9-9-9-9-9-9-9-12-12-12-12-12-12-12-12-9-9-9-9-9-9-9-9-9-9-9-9-9-9-9-9|
A|9-9-9-9-9-9-9-9-10-10-10-10-10-10-10-10-7-7-7-7-7-7-7-7-9-9-9-9-9-9-9-9|
E|7-7-7-7-7-7-7-7-----------------------------------------7-7-7-7-7-7-7-7|
    * *   * *   *     *  *     *  *     *   * *   * *   *   * *   * *   *

 Verse
e|-----------------------------------------------------|
B|-----------------------------------------------------|
G|-----------------------------------------------------|
D|--------------12-12-12-9--9-9-9-9--7-9--7-9-7-7-7-7--|
A|9--7-9--7-9-7-10-10-10-7--7-7-7-7--5-7--5-7-5-5-5-5-9|
E|7--5-7--5-7-5---------------------------------------7|

 Chorus
e|-----------------------------------------------------------------------|
B|-----------------------------------------------------------------------|
G|-----------------------------------------------------------------------|
D|12-12-12-12-------------9-9-9-9-9-9-9-9---------7-7-7-7----------------|
A|10-10-10-10-12-12-12-12-7-7-7-7-7-7-7-7-9-9-9-9-5-5-5-5-9-9-9-9-9-9-9-9|
E|------------10-10-10-10-----------------7-7-7-7---------7-7-7-7-7-7-7-7|

 Bridge: play verse chords just before solo

 Solo
e|------------------------------------------------------------|
B|------------------------------------------------------------|
G|--------------12-12-11-9--9-9-9-9--7-9--7-9-7-7-7-6-4--4-4-4|
D|9--7-9--7-9-7-----------------------------------------------|
A|------------------------------------------------------------|
E|------------------------------------------------------------|

e|--------------------------------------------------------------|
B|----12-10--10-10-10-10--12--------------14-13-12--12-12-12-12-|
G|11-------------------------11--11-11-11--------------------14b|
D|--------------------------------------------------------------|
A|--------------------------------------------------------------|
E|--------------------------------------------------------------|

 Pre-Chorus (the part before the last chorus)
e|-------------------------------------|
B|-------------------------------------|
G|-------------------------------------|
D|99999----1212121212----99999----99999|
A|99999----1010101010----77777----99999|
E|77777---------------------------77777|

e|-------------------------------------|
B|-------------------------------------|
G|-------------------------------------|
A|9--------12--------9--------9--------|
D|9--------10--------7--------9--------|
E|7---------------------------7--------|

 Outro
e|-----|
B|-----|
G|-----|
A|99999|
D|99999|
E|77777|
 Watch Your Timing! Listen to the song!
            
Hard to play? Try these video lessons and learn fast. | Correct




comments powered by Disqus
↑ Back to top | Tablatures and chords are parodies/interpretations of the original songs. You may use it for private study, scholarship, research or language learning purposes only