>
 >
Goodbye To Love 2

Goodbye To Love 2 Guitar Tabs

Carpenters - Goodbye To Love 2 chords, tabs, tablatures, lyrics

Guitar lessons | Add/correct | Request | Top 50 tabs Artists:  A B C D E F G H I J K L M N O P Q R S T U V W X Y Z 0-9

Goodbye To Love 2 Guitar Tabs – Carpenters

CD, Sheet music, Poster

Do you like Goodbye To Love 2? Share with your friends now
ChordsTabsTabs v2Ukulele
-------------------------------------------------------------------------------
                         GOODBYE TO LOVE  Carpenters
                            (R Carpenter, J Bettis)
                             A Song For You [1972]
-------------------------------------------------------------------------------



Tuning: standard

Verse 3: first solo (with fuzz tone)

      Fsus4            F          Bb
                                                 ~~~~~~~~
e|-----------------------------|---------------------------|
B|-----------------------------|---------------------------|
G|--------------------------1--|-/5------4--3--(3)---------|
D|---------------------3/5-----|---------------------------|
A|-----------------------------|---------------------------|
E|-----------------------------|---------------------------|

      Eb/Bb           F/Bb              Bb        F/Bb
                                         ~~~~       ~~~~~~
e|-----------------------------------|----------------------|
B|----------3------------------------|--6-----3--3/6--------|
G|-------------6--5--(5)--5--5/7--8--|----------------------|
D|----4--5---------------------------|----------------------|
A|-----------------------------------|----------------------|
E|-----------------------------------|----------------------|

      Bbsus4            F/Bb              Am11      D/F#  Gm       Em7b5
                                                                        ph
e|-------------------------------------|-----------------------------------|
B|----6--6--6--6h8--6--(6)\4--3-----3--|-(3)-----3-------------------------|
G|-------------------------------2-----|------2-----5--3--(3)--2-----3-----|
D|-------------------------------------|--------------------------5-----3--|
A|-------------------------------------|-----------------------------------|
E|-------------------------------------|-----------------------------------|

      Bb/F      Eb/F
                ~~~         gradual bend
                               rpb bsf
e|--------------------------------------------------|
B|--------------------------------------------------|
G|-------------3---5-3-5-5-5b6-(6)-(7)-(7)r5p3-5-3--|
D|----3-3-3h5---------------------------------------|
A|--------------------------------------------------|
E|--------------------------------------------------|

      Bbadd maj7            D/F#
                          co          rpb       mu
e|----------6-8b10-(10)r8-6-5----------------------|
B|--------6-------------------5b7-(7)-(7)r5p3-5----|
G|----5/7---------------------------------------x--|
D|-------------------------------------------------|
A|-------------------------------------------------|
E|-------------------------------------------------|

      Gm                            Em7b5
                 pb             ~~~~~~~~~~~~~~~~~~~~~~~~
e|-----------15---------------------------------------------|
B|----------------------------------------------------------|
G|----3/--15----(17b)19r17p15----15--15h17--15--15h17--15\--|
D|----------------------------17----------------------------|
A|----------------------------------------------------------|
E|----------------------------------------------------------|

      Bb/F         Cm/F

e|----------------------------------|
B|----6-----------------------------|
G|----------------------------------|
D|----------------------------------|
A|----------------------------------|
E|----------------------------------|




Outro solo (with fuzz tone)

      F/G    G    C/G                   C                 G/C
                                          co  co
e|-----------------------------------|--------------------------------------|
B|-----------------------------------|--------------------------8-(8)-10-8--|
G|----------------------------5-7-5--|--7b9-7b9-7b9r7-5-----7-9-------------|
D|------------------------5-7--------|------------------7-9-----------------|
A|------------------5h6h7------------|--------------------------------------|
E|-----------------------------------|--------------------------------------|

      C7/Bb                          F/A

e|-----------------------------------------------------|
B|----10b11-10b11-10b11-10b11r10-8h9-10----------------|
G|--------------------------------------10-------------|
D|-----------------------------------------10--10------|
A|-----------------------------------------------------|
E|-----------------------------------------------------|

      Fm/Ab            C/G                  F#m7b5           Gsus4  G
                                                                ~~~~ ~~~~
e|------------------------------------5--|---------------------------------|
B|----7b8r7-5-7b8r7-5-7b8r7-5-7b8r7-5----|--7b8r7-5------------------------|
G|---------------------------------------|----------7b9r7-5----5----4------|
D|---------------------------------------|------------------7--------------|
A|---------------------------------------|---------------------------------|
E|---------------------------------------|---------------------------------|

      C                 G/C                 C7/Bb                    F/A
                                                            bss                      mu
e|---------------------------------------|--------8-10b12-10-8-10-10b11r10p8-10-8-8-----|
B|--------------------8b10r8-------------|------8------------------------------------x--|
G|----5-5-----5--------------5h7-5--7-5--|--7/9-----------------------------------------|
D|--------7-5----7-5---------------------|----------------------------------------------|
A|---------------------------------------|----------------------------------------------|
E|---------------------------------------|----------------------------------------------|

      Fm/Ab                 C/G              F5     G5      C
             pb                ~~~~                          co
e|--------8-------------------------------|------------------------------------|
B|----8b9---(8b)9r8-6-8-8-6-6-5-----------|------------------------------------|
G|---------------------------------5--5\--|-----------------------------5-7-5--|
D|----------------------------------------|--3------5/------10------5-7--------|
A|----------------------------------------|--3------5/------10--5/7------------|
E|----------------------------------------|--1------3/------8------------------|

      C              G/C                  C7/Bb            F/A
                        let ring                    bsf   bsf
e|--------------------------8-----8----|----8-----8-----8-------------------|
B|--------8-----8-----8----------------|------------------------------------|
G|----7b9---7b9---7b9---7b9---7b9---7b-|--9---7b9---7b9---7b9-7-5---5--7p5--|
D|-------------------------------------|--------------------------7---------|
A|-------------------------------------|------------------------------------|
E|-------------------------------------|------------------------------------|

      Fm/Ab             C/G                F#m7b5          F/A     G
          rpb                    ~~~~
e|--------------------------------------|--------8-7-5--5tr7-5\----3----|
B|--------------------------------------|------8------------------------|
G|----7b8-(8)r7-5-7-5-7b9r7-5---5----5h-|--7/9--------------------------|
D|----------------------------7---------|-------------------------------|
A|--------------------------------------|-------------------------------|
E|--------------------------------------|-------------------------------|

      C               G/C                  C7/Bb           F/A
                                                           ~~~~ ~~~~ ~~~~
e|----3------------------------8--------|--5b6r5---------------------------|
B|------6-5-3------5h6h8p6-5------------|--------8-7-5--5--6---------------|
G|------------5--------------7----------|-----------------------5----5-----|
D|--------------5-----------------5-----|----------------------------------|
A|--------------------------------------|----------------------------------|
E|--------------------------------------|----------------------------------|

      Fm/A                      C/G               F5     G5    C
      pb      co   pb         pb                               let ring
e|---------------------------------------------|-----------------------------|
B|---------------------------------------------|-----------------------------|
G|---(7b)8r7p5----(7b)8r7-5--(7b)9r7-5--5h7-5--|---------------5-----5-------|
D|---------------------------------------------|--3------5--------5-----5----|
A|---------------------------------------------|--3------5-------------------|
E|---------------------------------------------|--1------3-------------------|

      C                   G/C             C7/Bb              F/A
      mu co   let ring                                   pb
e|-------------------------------------|--8--------10-8-(10b)11r10-8-8-(8)----|
B|------------------6-5-3-----------8--|--------------------------------------|
G|------------5-----------5-(5)--/9----|--------------------------------------|
D|---/(5)--5-----5---------------------|--------------------------------------|
A|-------------------------------------|--------------------------------------|
E|-------------------------------------|--------------------------------------|

      Fm/A            C/G              F#m7b5  Gsus4   G
                                                ~~~~
e|----8-------8-------8------8------|---------------------------|
B|------9-------9-------8------8----|---------------------------|
G|--------10------10------9------9--|--9\-7-5-7-5------4--4-----|
D|----------------------------------|------------------------3/-|
A|----------------------------------|---------------------------|
E|----------------------------------|---------------------------|

      C                    G/C                     C7/Bb         F/A
         co      co         co
e|----------------------------------------------|-------------------------------|
B|----------------------------------------------|-------------------------------|
G|-----------------------5-------------------5--|--7/9--9\7------5------7--5----|
D|----5--------5-7-5-5h7-----------5-5-5-5h7----|-------------------------------|
A|---------5/7-----------------5h7--------------|-------------------------------|
E|-------------------------8-8------------------|-------------------------------|


      Fm/Ab                C/G
e|---------------------------------|
B|---------------------------------|
G|----7b8----7------5--------------|
D|-------------------------7--5----|
A|---------------------------------|
E|---------------------------------|



Chords

Fsus4   F   Bb   Bb   Eb/Bb   Eb/Bb   F/Bb   F/Bb   F/Bb   Bbsus4

  1     1   1    6      x       6      x      x      x       1
  1     1   3    6      4       8      6      10     1       4
  3     2   3    7      3       8      5      10     2       3
  3     3   3    8      5       8      7      10     3       3
  3     3   1    8      x       x      x      x      1       1
  1     1   x    6      6       6      6      6      x       x



Bbsus4   Am11   D/F#   Gm   Em7b5   Bb/F   Eb/F   Bbadd maj7   Cm/F

  x       x      x     3      3      1`     8         x         8
  4       3      3     3      3      3      8         3         8
  3       5      2     3      3      3      8         3         8
  3       5      4     5      2      3      8         7         10
  x       x      x     5      x      x      8         x         8
  6       5      2     3      x      1      x         x         x



/    slide up
\    slide down
h    hammer-on
p    pull-off
mu   mute
pb   pre-bend
co   cut off
rpb  repeat bend
bsf  bend slightly flat
bss  bend slightly sharp
ph   pinched harmonic
tr   trill
~~   vibrato


========================================================================  07 May 2011





Comments


Popular Carpenters tabs & chords
Close To You 5 Chords
For All We Know Chords
Hurting Each Other Chords
I Wont Last A Day About You Chords
Close To You Intro Tabs
Goodbye To Love Tabs
All You Get From Love Is A Love Song Ukulele
I Need To Be In Love Ukulele
Mr Postman Ukulele
You Ukulele


Song lyrics



↑ Back to top | Tablatures and chords are parodies/interpretations of the original songs. You may use it for private study, scholarship, research or language learning purposes only
© 2014 AZChords.com Contact us | Privacy policy | DMCA | Add/correct tabs | Request tabs | Top 50 tabs