>
 >
Yesterday Once More

Yesterday Once More Bass Tabs

Carpenters - Yesterday Once More chords, tabs, tablatures, lyrics

Guitar lessons | Add/correct | Request | Top 50 tabs Artists:  A B C D E F G H I J K L M N O P Q R S T U V W X Y Z 0-9

Yesterday Once More Bass Tabs – Carpenters

CD, Sheet music, Poster

Do you like Yesterday Once More? Share with your friends now
Bass TabsChordsChords v2Chords v3Ukulele
Carpenters - Yesterday Once More

TablEdited by Jan Bjorklund   
You are welcome to request for tabs!
Fingering and positions as suggested by TablEdit, please use common sense.


Tuning : E A D G 	Time Signature: 4/4

 |       |       |       |        |       |       |       |        
|--------------------------------|------------------------2-0-----|
|--------------------------------|----------------------------2---|
|3-----------3-------------------|0-----------0-------------------|
|----------------------------3-4-|--------------------------------|

 |       |       |       |        |       |       |       |        
|--------------------------------|--------------------------------|
|--------------------------------|0-------------------------------|
|3-----------3---------------3---|--------------------------------|
|--------------------------------|--------3-----------------------|

 |       |       |       |        |       |       |       |        
|--------------------------------|------------------------0-------|
|--------------------------------|--------------------------------|
|3-----------3---------------3---|2-----------2---------------2---|
|------------------------3-------|--------------------------------|

 |       |       |       |        |       |       |       |        
|--------------------------------|------------------------0-------|
|--------------------------------|--------------------------------|
|0-----------0-------------------|----------------------------3---|
|--------------------------------|3-----------3-------------------|

 |       |       |       |        |       |       |       |        
|--------------------------------|--------------------------------|
|----------------3-------------3-|2-----------2---------------2---|
|------------3---------------3---|------------------------2-------|
|1-------------------------------|--------------------------------|

 |       |       |       |        |       |       |       |        
|--------------------------------|------------------------0-------|
|0-----------0---------------0---|--------------------0-----------|
|------------------------0-------|--------------------------------|
|--------------------------------|3-----------3-------------------|

 |       |       |       |        |       |       |       |        
|--------------------------------|--------------------------------|
|--------------------------------|--------------------------------|
|3-----------3---------------3---|2-----------2---------------2---|
|------------------------3-------|------------------------3-------|

 |       |       |       |        |       |       |       |        
|--------------------------------|--------------------------------|
|----------------------------2---|----------------0---------------|
|0-----------0-------------------|------------------------2-------|
|----------------3---------------|1-------------------------------|

 |       |       |       |        |       |       |       |        
|------------------------------2-|0-----------0-------------------|
|----------------------------2---|--------------------------0-----|
|0-----------0-------------------|--------------------------------|
|--------------------------------|----------------------------3---|

 |       |       |       |        |       |       |       |        
|--------------------------------|--------------------------------|
|----------------0---------------|--------------------------------|
|--------------------------------|--------------------------------|
|1-----------1-------------------|3-----------3---3-------3-------|

 |       |       |       |        |       |       |       |        
|--------------------------------|--------------------------------|
|--------------------------------|--------------------2-----------|
|3---------------3---------------|0-----------0-----------0---2---|
|------------3-----------3---4---|--------------------------------|

 |       |       |       |        |       |       |       |        
|--------------------------------|----------------2-----0---------|
|--------------------------------|------------2-----------2---0---|
|3---------------3---3-----------|0-------------------------------|
|------------3---------------3---|--------------------------------|

 |       |       |       |        |       |       |       |        
|--------------------------------|--------------------------------|
|--------------------------------|--------------------------------|
|3-----------3-----------3-------|0-----------0-----------0---3---|
|--------------------3-------3---|--------------------------------|

 |       |       |       |        |       |       |       |        
|----------------------------0---|--------------------------------|
|0-----------0---0---2---3-------|--------------------------------|
|--------------------------------|--------------------------------|
|--------------------------------|----3---3-----3-3---3-------3---|

 |       |       |       |        |       |       |       |        
|--------------------------------|--------------------------------|
|--------------------------------|--------------------2-----------|
|0-----------0---------------0---|--------------------------------|
|--------------------------------|4-----------4---------------4---|

 |       |       |       |        |       |       |       |        
|--------------------------------|--------------------------------|
|--------------------2-----------|------------------------0-------|
|--------------------------------|--------------------------------|
|3-----------3-------------------|------------2---------------2---|

 |       |       |       |        |       |       |       |        
|----------------0---0-----------|------------0-------------------|
|------------0-------------0-----|--------------------------------|
|--------------------------------|--------------------------------|
|3-------------------------------|3-----------------------3-------|

 |       |       |       |        |       |       |       |        
|------------------------0---5---|--------------------------2-0---|
|--------------------------------|--------------------------------|
|3-----------3---3---------------|--------------------------------|
|--------------------------------|--------------------------------|

 |       |       |       |        |       |       |       |        
|--------------------------------|----0---0-----------------------|
|--------------------------------|------------------------0-------|
|3-----------3---3-------0---3---|--------------------------3-0---|
|--------------------3-----------|--------------------------------|

 |       |       |       |        |       |       |       |        
|--------------------------------|--------------------------------|
|--------------------------------|--------------------------------|
|3---------------------------3---|2-----------2---------------2---|
|------------------------3-------|------------------------3-------|

 |       |       |       |        |       |       |       |        
|--------------------------------|--------------------------------|
|------------------------2-------|------------------------2-------|
|0-----------0---------------0---|--------------------------------|
|--------------------------------|3-----------3---------------3---|

 |       |       |       |        |       |       |       |        
|--------------------------------|--------------------------------|
|----------------------------3---|2---------------------------2---|
|------------------------3-------|------------------------2-------|
|1-----------1-------------------|--------------------------------|

 |       |       |       |        |       |       |       |        
|--------------------------------|------------0-------0---0-------|
|0-----------0---------------0---|--------------------------2-0---|
|------------------------0-------|--------------------------------|
|--------------------------------|3---3-------------3-------------|

 |       |       |       |        |       |       |       |        
|--------------------5-------2---|------------------------0-------|
|--------------------------------|--------------------------------|
|3-----------3-----------------3-|2-----------2---------------2---|
|--------------------------------|--------------------------------|

 |       |       |       |        |       |       |       |        
|--------------------------------|--------------------------------|
|------------------------0-------|------------3---2---------------|
|0-----------0-------------------|----------3-------------2-------|
|----------------3-----------3---|1-------------------------------|

 |       |       |       |        |       |       |       |        
|------------2-------------------|--------------------0---0-------|
|--------2-----------------2-----|--------------------------------|
|0---------------------------0---|--------------------------------|
|--------------------------------|3-----------3---------------3---|

 |       |       |       |        |       |       |       |        
|--------------------------------|--------------------------------|
|----------------0-----------0---|--------------------------------|
|--------------------------------|--------------------------------|
|1-----------1-------------------|3---3-------3---3-------3-------|

 |       |       |       |        |       |       |       |        
|--------------------------------|----------------2---------------|
|--------------------------------|------------2---------2---------|
|3---------------3---------------|0---------------------------0-2-|
|--------------------------------|--------------------------------|

 |       |       |       |        |       |       |       |        
|--------------------------------|----------------2-------0-------|
|--------------------------------|------------2-------------2-0---|
|3---------------3---3-----------|0-------------------------------|
|------------3---------------3---|--------------------------------|

 |       |       |       |        |       |       |       |        
|--------------------------------|--------------------------------|
|--------------------------------|--------------------2-----------|
|3-----------3-----------3-------|0-----------0---------------0---|
|--------------------3-------3---|--------------------------------|

 |       |       |       |        |       |       |       |        
|----------------------------0---|----------------0---0-------0---|
|0-----------0---0---2---3-------|--------------------------------|
|--------------------------------|--------------------------------|
|--------------------------------|----3---3-----3-----------3-----|

 |       |       |       |        |       |       |       |        
|--------------------------------|--------------------------------|
|--------------------------2-----|--------------------------------|
|0-----------0---------------0---|--------------------------------|
|--------------------------------|4-----------4---------------4---|

 |       |       |       |        |       |       |       |        
|--------------------------------|--------------------------------|
|--------------------------------|--------------------4---0-------|
|--------------------------------|--------------------------------|
|3-------------------3-----------|--------2-------------------2---|

 |       |       |       |        |       |       |       |        
|--------------------------------|0-------------------------------|
|----------------------------0---|--------------------------------|
|--------------------------------|--------------------------------|
|3-------------3-3---3-----------|----------------3---3-----------|

 |       |       |       |        |       |       |       |        
|--------------------0-------5---|----0---5-----------0---2-0-----|
|--------------------------------|----10----------------------2-0-|
|3-----------3---3-------3-------|--3-----------------------------|
|--------------------------------|--------------------------------|

 |       |       |       |        |       |       |       |        
|--------------------------------|--------------------------------|
|--------------------------------|--------------------------------|
|3-----------3-----------3-------|0-----------0---0-----------0-2-|
|----------------------------3---|--------------------------------|

 |       |       |       |        |       |       |       |        
|--------------------------------|--------------------0-----------|
|--------------------------------|------------------------2-------|
|3-----------3-----------3-------|0---------------------------3-0-|
|--------------------3-------3---|--------------------------------|

 |       |       |       |        |       |       |       |        
|--------------------------------|----------------------------2---|
|--------------------------------|--------------------------------|
|3-----------3-----------3-------|0-----------0-------------0-----|
|--------------------3-----------|--------------------------------|

 |       |       |       |        |       |       |       |        
|--------------------7-----2-0---|----0---------------------------|
|0-------------------------------|------------0-------------------|
|--------------------------------|--------------------------------|
|--------------------------------|------------------------3-------|

 |       |       |       |        |       |       |       |        
|--------------------------------|--------------------2-----------|
|--------------------------------|------------------------2-0-----|
|3-----------3-----------3-------|0-----------0---------------3---|
|--------------------3-------3---|--------------------------------|

 |       |       |       |        |       |       |       |        
|--------------------------------|----------------2---------0-----|
|--------------------------------|------------2---------------2-0-|
|3-----------3-----------3-------|0-------------------------------|
|--------------------3-------3---|--------------------------------|

 |       |       |       |        |       |       |       |        
|--------------------------------|----------------------------2---|
|--------------------------------|--------------------------------|
|3-----------3-----------3-------|0-----------0-------------0-----|
|--------------------3-------3---|--------------------------------|

 |       |       |       |        |       |       |       |        
|------------------------2-------|----------------0---------------|
|0-------------------------------|--------------------0-----------|
|--------------------------------|--------------------------------|
|--------------------------------|----3---3-------------------3---|

 |       |       |       |        |       |       |       |        
|--------------------------------|------------2---2-------0-------|
|--------------------------------|--------------------------2-0---|
|3-----------3-----------3-------|0-------------------------------|
|--------------------3-------3---|--------------------------------|

 |       |       |       |        |       |       |       |        
|--------------------------------|----------------2---------------|
|--------------------------------|------------2-------------------|
|3-----------3-----------3-------|0---0-----------------------0-2-|
|--------------------3-------3---|--------------------------------|

 |       |       |       |        |       |       |       |        
|--------------------------------|----------------2---2-----------|
|--------------------------------|------------2-------------2-----|
|3-----------3-----------3-------|0---------------------------0---|
|--------------------3-------3---|--------------------------------|

 |       |       |       |        |       |       |       |        
|--------------------------------|----0---------------------------|
|0-----------0-----------0-------|------------------------0-------|
|--------------------------------|--------------------------------|
|--------------------------------|------------3-------3-------3---|

 |       |       |       |        
|--------------------------------|
|--------------------------------|
|--------------------------------|
|--------------------------------|





Comments


Popular Carpenters tabs & chords
Breaking Up Is Hard To Do Chords
For All We Know 1 Chords
I Wont Last A Day About You Chords
Rainy Days And Mondays 2 Chords
Sometimes Chords
Superstar 3 Chords
Top Of The World 5 Chords
Please Mr Postman Tabs
Home For The Holidays Ukulele
I Need To Be In Love Ukulele


Song lyrics



↑ Back to top | Tablatures and chords are parodies/interpretations of the original songs. You may use it for private study, scholarship, research or language learning purposes only
© 2014 AZChords.com Contact us | Privacy policy | DMCA | Add/correct tabs | Request tabs | Top 50 tabs