>
 >
Wallflower

Wallflower Guitar Tabs

Carolines Spine - Wallflower chords, tabs, tablatures, lyrics

Guitar lessons | Add/correct | Request | Top 50 tabs Artists:  A B C D E F G H I J K L M N O P Q R S T U V W X Y Z 0-9

Wallflower Guitar Tabs – Carolines Spine

CD, Sheet music, Poster

Do you like Wallflower? Share with your friends now
TabsTabs v2
Caroline's Spine


Chords (for electric part and strumming at the very end)
 E5 F#5 C5 A5 D5 G5 Em D/F# C Asus Dsus/F#
--------------------0--2----0--0----0----|
--------------------0--3----3--0----3----|
--------5--2--7-----0--2----0--2----2----|
-2--4---5--2--7--5--2--0----2--2----0----|
-2--4---3--0--5--5--2--x----3--0----x----|
-0--2------------3--0--2------------2----|


here's the main rythm (played during intro and verses)
 G*                  C*                  Em*               C*
-------------------------------------------------------------------------------|
-----0-0-0-0---0-0-0-----0-0-0-0---0-0-0-----0-0-0-0-----------0-0-0-0---0-0-0-|
-----4-4-4-4---4-4-4-----4-4-4-4---4-4-4-----4-4-4-4-----------4-4-4-4---4-4-4-|
---------------------------------------------------------0---------------------|
---------------------3-3---------3-------------------------3-3---------3-------|
-3-3---------3---------------------------0-0---------0-2-----------------------|

here's the prechorus rythm
 A*                  C*                  G*                  C*
----------------------------------------------------------------------------------|
-----0-0-0-0---0-0-0-----0-0-0-0---0-0-0-----0-0-0-0---0-0-0------0-0-0-0---0-0-0-|
-----4-4-4-4---4-4-4-----4-4-4-4---4-4-4-----4-4-4-4---4-4-4------4-4-4-4---4-4-4-|
----------------------------------------------------------------------------------|
-0-0---------0-------3-3---------3---------------------------3-3----------3-------|
-----------------------------------------3-3---------3----------------------------|

Lead rythm fill
 E5    F#5   C5    A5
---------------------------|
---------------------------|
---------------------------|
---0h2-2h4-0---2h4---4h5-0-|
-------------3-----0-------|
---------------------------|

****************************

G* C* Em* C*

  G*                       C*               Em*            C*
I could have died, maybe I should have died when I saw you walk inside
    G*                             C*                           Em*                      
 C*
And as you shut the door, I put my eyes back on the floor, when all I really wanted was 
look some more

       A*                         C*                    G*    C*
Does a wallflower play, or does a wallflower stay on his wall?

          G*                   C*                  Em*                          C*
You see I live alone, but I've made my happy home, all my furniture is centered around 
my phone
    G*                             C*                   Em*                             C*
I'm waiting for the call, my imaginary friends and all, those who would never let me be 

       A*                         C*                 G*    C*
Does a wallflower know, when it's time he outgrow his wall?
               A*                          C*                      E5    F#5 C5 A5
Tell me does a wallflower know, when it's about time he outgrow his wall?
       E5   F#5 C5 A5
Yeah his wall

E5 F#5 C5 A5 (play lead rythm fill over these 2 lines)
E5 F#5 C5 A5

E5                F#5                C5            A5
 Time and time and time and time and only time has feeling for me
E5  F#5          C5                    A5
    Maybe, maybe father time will feel sorry for me
E5  F#5                     C5                 A5
  I knew, I knew when there was a time, when I knew it all
E5            F#5            C5               A5            E5
  Why don't I ever leave my wall? Why don't I ever leave my wall?
            F#5           C5                 A5            E5  F#5  C5  A5
Why don't I ever leave my wall? Please don't ever leave my wall, my wall

E5  F#5  C5  A5 (repeat 4x) solo played here
E5  F#5  C5  D5  G5

G* (repeat several times main rythm-just the G* portion)

              G*                               C*
You know that siren's getting louder and these people are starting to crowd in on me
Em*                                C*
All I smell and taste is garlic and gunpowder
        G*                            C*
Cause I shot the bad guy dead, but he got me in the head
            Em*                                         C*
Oh with the girl of my dreams she's mentioning to me how much I've bleed

             A*                        C*                          G*    C*
Where do the wallflower go, when their flowers get pulled from this wall?
                  A*                                   C*                      G*
Oh and though she says I'm brave and bold, she knows a flower cannot hold up a wall
        C*                    Em    D/F#    C     Asus
I can't hold up this wall any longer,   any longer
            Em               D/F#     C    Asus
Cause all I have is time and time and time
           Em                 D/F#             C
My only friend, time and time, please some more time
  Asus       Em        D/F#       C
I think I'm over,    I think I'm over,
Asus            Em  D/F# C Asus
    I think I'm ov  -    er

D/F# Dsus/F# Em





Comments


Popular Carolines Spine tabs & chords
Think About Me Bass Tabs
Trio' Pain 1 Bass Tabs
Nothing To Prove Chords
Attention Please Tabs
Sullivan Tabs
Trippin' Laces Tabs
Wallflower 1 Tabs
Nothing To Prove Ukulele
Please Let Me Go Ukulele
Sullivan Ukulele


Song lyrics



↑ Back to top | Tablatures and chords are parodies/interpretations of the original songs. You may use it for private study, scholarship, research or language learning purposes only
© 2014 AZChords.com Contact us | Privacy policy | DMCA | Add/correct tabs | Request tabs | Top 50 tabs