» » »

Wallflower Tabs (ver.2)

Artists:  A B C D E F G H I J K L M N O P Q R S T U V W X Y Z # 

Wallflower Tabs (ver.2)

Carolines Spine
Rating:
5/5 (2 votes)

Hard to play? Try these video lessons and learn fast.
                
WALLFLOWER
As recorded by Caroline's Spine
(From the 1997 Album MONSOON, on Hollywood Records)



 Words and Music by Jimmy Newquist

 

Gtr I (D A D G B E) - 'Acoustic - Jimmy Newquist'
Gtr II (D A D G B E) - 'Electric - Mark Haugh'


    Gtr I
                                                                                           7x
||-----------------------------------------------------------------------------------------||
||o-----0-0-0-0-0-0-0-0-0-----0-0-0-0-0-0-0-0-0-----0-0-0-0-0----------0-0-0-0-0-0-0-0-0--o||
||------4-4-4-4-4-4-4-4-4-----4-4-4-4-4-4-4-4-4-----4-4-4-4-4----------4-4-4-4-4-4-4-4-4---||
||-----------------------------------------------------------------------------------------||
||o-----------------------3-3--------------------------------------2-2--------------------o||
||--5-5-----------------------------------------2-2-----------4-/5-------------------------||


      Gtr II Distortion                                         2x
||--------------------------------------------------------------||
||o------------------------------------------------------------o||
||--------------------------------------------------------------||
||--2-2-2-2-2-2-2--4-4-4--2--4--10-10-10-10-10-10-10-7-7-7-7-7--||
||o-2-2-2-2-2-2-2--4-4-4--2--4--10-10-10-10-10-10-10-7-7-7-7-7-o||
||--2-2-2-2-2-2-2-/4-4-4\-2-/4-/10-10-10-10-10-10-10-7-7-7-7-7--||


  Gtr. II Distortion                        2x
||------------------------------------------||
||o----------------------------------------o||
||------------------------------------------||
||--2-2-----4-4-------10-10-----7-7---------||
||o-2-2-5h7-4-4-5h7p5-10-10-7h9-7-7-9h10---o||
||--2-2-----4-4-------10-10-----7-7------10-||


    Gtr II  Distortion
                                                                4x
||--------------------------------------------------------------||
||o------------------------------------------------------------o||
||--------------------------------------------------------------||
||--2-2-2-2-2-2-2--4-4-4--2--4--10-10-10-10-10-10-10-7-7-7-7-7--||
||o-2-2-2-2-2-2-2--4-4-4--2--4--10-10-10-10-10-10-10-7-7-7-7-7-o||
||--2-2-2-2-2-2-2-/4-4-4\-2-/4-/10-10-10-10-10-10-10-7-7-7-7-7--||


   Gtr II Distortion                      2x
||----------------------------------------||
||o--------------------------------------o||
||----------------------------------------||
||--2-2-----4-4-------10-10-----7-7-------||
||o-2-2-5h7-4-4-5h7p5-10-10-7h9-7-7-9h10-o||
||--2-2-----4-4-------10-10-----7-7-------||


           Solo (Gtr. II.  Distortion, Wah)
|----------------------------------------------------------------------------------------------------------------------------------|
|----------------------------------------------------------------------------------------------------------------------------------|
|-----------------------------------------------------------------------------------7h9-9-9---9--9p7-7--7-7-/9--9--9--9--9----9h12-|
|----------------------------------------------------------------------------------------------------------------------------------|
|-----------------------------------------------------------------------------2--2-------------------------------------------------|
|--2--2--2--2--2--2--2-2-2-2/--4--4-4\-2s4/-5--5--5-5-5-5-5--5/--7--7-7--7-7--2--2-------------------------------------------------|
|
|
|--------------------------------------------------------------------------------------------------------------------10-10---------|
|---------------------------------------------------------------------------------------------------------7--7--8--8---------------|
|-12-12-12p11-11-11-11-------------------------------------------------------------------------------------------------------------|
|----------------------4-4-4---5--5-5--5-7--7--7--7-9-9-9-9--9---9h10p9\-7-7h=9--7\-5-5h7-5\--4--4h5-4\-2--------------------------|
|----------------------------------------------------------------------------------------------------------------------------------|
|----------------------------------------------------------------------------------------------------------------------------------|
|
|             
|-------------10-10-----------10-10-----------10-10---------10--10-----------10-10-----------10-10----------10-10-10--7-10b--------|
|--7--7--8--8--------7-7-8-8--------7--7-8--8-------7-7-8-8---------7-7--8-8--------7-7-8-8--------7-7--8-8------------------------|
|----------------------------------------------------------------------------------------------------------------------------------|
|----------------------------------------------------------------------------------------------------------------------------------|
|----------------------------------------------------------------------------------------------------------------------------------|
|----------------------------------------------------------------------------------------------------------------------------------|


        Gtr I
                                                                                           5x
||-----------------------------------------------------------------------------------------||
||o-----0-0-0-0-0-0-0-0-0-----0-0-0-0-0-0-0-0-0-----0-0-0-0-0----------0-0-0-0-0-0-0-0-0--o||
||------4-4-4-4-4-4-4-4-4-----4-4-4-4-4-4-4-4-4-----4-4-4-4-4----------4-4-4-4-4-4-4-4-4---||
||-----------------------------------------------------------------------------------------||
||o-----------------------3-3--------------------------------------2-2--------------------o||
||--5-5-----------------------------------------2-2-----------4-/5-------------------------||


    Gtr I                                        2x
||-----------------------------------------------||
||o---------5---------5-2-2-2-2-2-2-2-1-1-1-1-1-o||
||----------4---------4-3-3-3-3-3-3-3-2-2-2-2-2--||
||-----------------------------------------------||
||o---------------------------------------------o||
||--0-0-0-0---0-0-0-0----------------------------||


  Gtr I
|-0----|
|-0----|
|-0----|
|-3----|
|-3----|
|-3----|



-----------------------------------------------------------------------------

Tablature Legend
----------------
| /  slide up
| \  slide down
| h  hammer-on
| p  pull-off
| ~  vibrato
| +  harmonic
| x  Mute note
            
Hard to play? Try these video lessons and learn fast. | Correct




comments powered by Disqus
↑ Back to top | Tablatures and chords are parodies/interpretations of the original songs. You may use it for private study, scholarship, research or language learning purposes only