>
 >
In Coalesce With Filth And Faith 2

In Coalesce With Filth And Faith 2 Guitar Tabs

Carnifex - In Coalesce With Filth And Faith 2 chords, tabs, tablatures, lyrics

Guitar lessons | Add/correct | Request | Top 50 tabs Artists:  A B C D E F G H I J K L M N O P Q R S T U V W X Y Z 0-9

In Coalesce With Filth And Faith 2 Guitar Tabs – Carnifex

CD, Sheet music, Poster

Do you like In Coalesce With Filth And Faith 2? Share with your friends now
TabsTabs v2Tabs v3
-------------------------------------------------------------------------------
                    In Coalesce With Filth And Faith - Carnifex
-------------------------------------------------------------------------------

Tuning:A,E,A,D,G,B,E

Intro, part 1
(gtr. I)
|-----------------------------------------------|------------|
|-----------------------------------------------|------------|
|-----------------------------------------------|------------|
|-----------------------------------------------|------------|
|-----------------------------------------------|----5-4-----|
|---000-888-777-222-333-222-555-111-000-888-777-|2-8-----7---|
pm  --- --- --- --- --- --- --- --- --- --- ---  trem
                                                             
(gtr. II)                                                    
|-----------------------------------------------|------------|
|-----------------------------------------------|------------|
|-----------------------------------------------|------------|
|-----------------------------------------------|------------|
|---000---------222-333-222---------000---------|----5-4-----|
|---000---------222-333-222---------000---------|2-8-----7---|
pm  ---         --- --- ---         ---          trem


(both gtrs)
|-----------------------------------------------------------------|
|-----------------------------------------------------------------|
|-----------------------------------------------------------------|
|-----------------------------------------------------------------|
|-----------------------------------------------------------------|
|-000-888-777-222-333-222-555-111-000-888-777-555-101010-888-777--|
pm--- --- --- --- --- --- --- --- --- --- --- --- ------ --- ---


|------------------------------------------------|-------------|
|------------------------------------------------|-------------|
|------------------------------------------------|-------------|
|------------------------------------------------|-------------|
|------------------------------------------------|----5-4------|
|-000-888-777-222-333-222-555-111-000-888-777----|5-8-----7----|
pm--- --- --- --- --- --- --- --- --- --- ---     trem


Intro part two, i.e. the "breakdown" is the same as guitar 2 at the beginning.
I'm sure you know that baby.

Riff 1
|-------------------------------------------------------------------|
|-------------------------------------------------------------------|
|-------------------------------------------------------------------|
|-------------------------------------------------------------------|
|----8---7---5---4---5---7---5-----8---7---5---4h5-5h7-7h8-8h10-----|
|-00---0---0---0---0---0---0----00---0---0---0----------------------|
pm--   -   -   -   -   -   -    --   -   -   -

|-------------------------------------------------|
|-------------------------------------------------|
|-------------------------------------------------|
|-------------------------------------------------|(play Riff 1 twice
|-----12-10-8-12-10-8-----10-8-7-10-8-7-----------| altogether)
|-888-----------------777-------------------------|  


Riff 2                                                    (x2)
|------------------------------------------------------------|
|------------------------------------------------------------|
|------------------------------------------------------------|
|---------3----------2------------------7----------5------2--|
|---------5----------4------------------8----------7------4--|
|-000-000----000-000----000-000-000-000----000-000----000----|
pm--- ---    --- ---    --- --- --- ---    --- ---    ---


Riff 3
|----------------------------------------|
|----------------------------------------|
|----------------------------------------|
|----------------------------------------|
|---10-8-7---10-8-7---8-7-5---8-7-5------|
|-8--------8--------7-------7------------|

|-----------------------------------|
|-----------------------------------|
|-----------------------------------|
|-----------------------------------|
|---10-8-7---10-8-7---8-7-5-4-5-7-8-|
|-8--------8--------7---------------|

second half of the riff above.
The harmony is, again, just 3 frets higher.
|------------------------------------------------------------------------|
|------------------------------------------------------------------------|
|------------------------------------------------------------------------|
|-----------------------------------------------------------------5-7-5--|
|----10-8-7---10-8-7----8-7-5---8-7-5---10-8-7---10-8-7-5-4-5-7-8--------|
|--8--------8--------7--------7-------8--------8-------------------------|



(both gtrs) breakdown was already done so I'll leave it here.
|--------------------------------|
|--------------------------------|
|--------------------------------|
|-------.------------------.---.-|
|-0000000----------------000-000-|
|-0000000----------------000-000-|
pm-------                --- ---


Breakdown                         (x3)
|-------------------------------------|
|-------------------------------------|
|-------------------------------------|
|-------.-------.-.------.-.----.---.-|
|-0000000-----000-0----000-0--000-000-|
|-0000000-----000-0----000-0--000-000-|
pm-------     --- -    --- -  --- ---

|-------------------------------------|
|-------------------------------------|
|-------------------------------------|
|-------.-------.-.------.-.----------|
|-0000000-----000-0----000-0--000-000-|
|-0000000-----000-0----000-0--111-111-| (let last two triplets ring)
pm-------     --- -    --- -  --- ---

                                  (x4)
|-------------------------------------|
|-------------------------------------|
|-------------------------------------|
|-------------------------------------|
|-0000000-~-~-000-0-~-~-~-~-~-000-000-|
|-1111111-~-~-111-1-~-~-~-~-~-111-111-| 
pm-------     --- -           --- ---


Riff 3                         
|-----------------------------------------------------------------------|
|-----------------------------------------------------------------------|
|-----------------------------------------------------------------------|
|-----------------5\\4-----3\\2----------------------5\\4-----3\\2---*--|
|-0-1-0-3-1-3-4-1-4\\3-3-2-2\\1-2-1--0-1-0-3-1-3-4-1-4\\3-3-2-2\\1---2P-|
|-0-1-0-3-1-3-4-1------3-2------2-1--0-1-0-3-1-3-4-1------3-2------1----|
pm- - - - - - - -      - -      - -  - - - - - - - -      - -      -


|----------------------------------------------------------------------|
|----------------------------------------------------------------------|
|----------------------------------------------------------------------|
|-----------------5\\4-----3\\2----------------------5\\4-----3\\2-----|
|-0-1-0-3-1-3-2-1-4\\3-3-2-2\\1-2-1--0-1-0-3-1-3-2-1-4\\3-3-2-2\\1-2-1-|
|-0-1-0-3-1-3-2-1------3-2------2-1--0-1-0-3-1-3-2-1------3-2------2-1-|
pm- - - - - - - -      - -      - -  - - - - - - - -      - -      - -


Riff 4
|-------------------------------------------------------|
|-------------------------------------------------------|
|-------------------------------------------------------|
|-----------8-12-10-7-----7-----7---7-----3-----3---3---|
|---8-12-10---------------------------------------------|
|-0-------------------888---8-8---8---555---5-5---5-----|
pm                    ---   - -   -   ---   - -   -

|-------------------------------------------------------|
|-------------------------------------------------------|
|-------------------------------------------------------|
|-----------8-12-10-7-----------------------------------|
|---8-12-10---------------7-----7---7------5-----7---7--|
|-0-------------------888---8-8---8----777---7-7---8----|
pm                    ---   - -   -    ---   - -   - 
|-------------------------------------------------------|
|-------------------------------------------------------|
|-------------------------------------------------------|
|-----------8-12-10-7-----7-----7---7-----3-----3---3---|
|---8-12-10---------------------------------------------|
|-0-------------------888---8-8---8---555---5-5---5-----|
pm                    ---   - -   -   ---   - -   -

|-------------------------------------------------------|
|-------------------------------------------------------|
|-------------------------------------------------------|
|-----------8-12-10-7-----------------------------------|
|---8-12-10---------------7-----7---7------1-----1---1--|
|-0-------------------888---8-8---8----444---4-4---4----|
pm                    ---   - -   -    ---   - -   -


Riff 5, 2x
|-------------------------------------------------|----------|
|-------------------------------------------------|----------|
|-------------------------------------------------|----------|
|-------------------------------------------------|----------|
|-------------------------------------------------|-2-5-4-1--|
|-1p0-0-1-0-1-0-0-3-1-0-0-4-3-1-0-1p0-0-1-0-1-0-0-|----------|
pm    -   -   - -     - -       -     -   -   - -  trem


Riff 5, 2
|-------------------------------------------------|----------|
|-------------------------------------------------|----------|
|-------------------------------------------------|----------|
|-------------------------------------------------|----------|
|-1p0-0-1-0-1-0-0-3-1-0-0-4-3-1-0-1p0-0-1-0-1-0-0-|----------|
|-1p0-0-1-0-1-0-0-3-1-0-0-4-3-1-0-1p0-0-1-0-1-0-0-|-2-5-4-1--|
pm    -   -   - - - - - - - - - -     -   -   - -  trem

|-------------------------------------------------------------------|
|-------------------------------------------------------------------|
|-------------------------------------------------------------------|
|-------------------------------------------------------------------|
|-1p0-0-1-0-1-0-0-3-1-0-0-4-3-1-0-1p0-0-1-0-1-0-0--444-3-2-333-2-1--|
|-1p0-0-1-0-1-0-0-3-1-0-0-4-3-1-0-1p0-0-1-0-1-0-0--555-4-3-444-3-2--|
pm    -   -   - - - - - - - - - -     -   -   - -  --- - - --- - -




Outro            (x3)|
|--------------------|----------------------------------|
|--------------------|----------------------------------|
|--------------------|----------------------------------|
|--------------------|----------------------------------|
|-2-1-1-2-1-1--------|-2-1-1-2-1--~--1--~---------------|
|-3-2-2-3-2-2--------|-3-2-2-3-2--~--2--~--2bend drop-~-|
pm  - -   - -            - -   -     -

                                        (x2)
|-------------------------------------------|
|-------------------------------------------|
|-------------------------------------------|
|-------------------------------------------|
|-0-1-1-0-1-1-------0-1-1-0-1-----3---------|
|-1-0-0-1-0-0-------1-0-0-1---2-1---2-1-3-2-|
pm- - - - - -       - - - - 

                (x4)
|-------------------|
|-------------------|
|-------------------|
|-------------------|
|-0-1-1-0-1-1-------|
|-1-0-0-1-0-0-------|
pm- - - - - -





Comments


Popular Carnifex tabs & chords
Answers In Mourning Tabs
Dead But Dreaming Tabs
Genocide Initiative Intro Tabs
Hope Dies With The Decadent Tabs
Lie To My Face Intro Tabs
Sorrow Spell Intro Tabs
Sorrow Spell Intro 1 Tabs
Sorrowspell Tabs
The Diseased And The Poisoned Intro Tabs
The Diseased And The Poisoned Intro 1 Tabs


Song lyrics



↑ Back to top | Tablatures and chords are parodies/interpretations of the original songs. You may use it for private study, scholarship, research or language learning purposes only
© 2014 AZChords.com Contact us | Privacy policy | DMCA | Add/correct tabs | Request tabs | Top 50 tabs