>
 >
In Coalesce With Filth And Faith

In Coalesce With Filth And Faith Guitar Tabs

Carnifex - In Coalesce With Filth And Faith chords, tabs, tablatures, lyrics

Guitar lessons | Add/correct | Request | Top 50 tabs Artists:  A B C D E F G H I J K L M N O P Q R S T U V W X Y Z 0-9

In Coalesce With Filth And Faith Guitar Tabs – Carnifex

CD, Sheet music, Poster

Do you like In Coalesce With Filth And Faith? Share with your friends now
TabsTabs v2Tabs v3


Tuning: Drop A (low to high: A-E-A-D-F#-B)


Key
 ____________________________
| pm* = palm mute            |
| * = pinch harmonic         |
| h = hammer-on              |
| p = pull-off               |
| b = bend                   |
| br = (pre)bend and release |
| / \ = slide                |
| // \\ = legato slide       |
| . = staccato               |
| _ = silence (mute) string  |
| ~ = let ring               |
| " = trem picked            |
|____________________________|



*NOTE* Any time a riff is not designated (gtr. I) or (gtr. 2), assume that
       it is both playing the part, unless otherwise noted.



Intro, part 1
(gtr. I)
|-------------------------------------------------------------|
|-------------------------------------------------------------|
|-------------------------------------------------------------|
|-------------------------------------------------------------|
|-----111-000-------------------------111-000-----1"-5"-4"-0"-|
|-000---------222-333-222-555-222-000---------222-------------| \
pm*** *** *** *** *** *** *** *** *** *** *** ***                \
                                                                  \
(gtr. II)                                                         /
|-------------------------------------------------------------|  /
|-------------------------------------------------------------| /
|-------------------------------------------------------------|
|-------------------------------------------------------------|
|-000---------222-333-222---------000-------------1"-5"-4"-0"-|
|-000---------222-333-222---------000---------222-------------|
pm***         *** *** ***         ***         ***


(both gtrs)
|-----------------------------------------------------------------|
|-----------------------------------------------------------------|
|-----------------------------------------------------------------|
|-----------------------------------------------------------------|
|-----111-000-------------------------111-000---------333-111-000-|
|-000---------222-333-222-555-222-000---------222-333-------------|
pm*** *** *** *** *** *** *** *** *** *** *** *** *** *** *** ***


|-------------------------------------------------------------|
|-------------------------------------------------------------|
|-------------------------------------------------------------|
|-------------------------------------------------------------|
|-----111-000-------------------------111-000-----1"-5"-4"-0"-|
|-000---------222-333-222-555-222-000---------222-------------|
pm*** *** *** *** *** *** *** *** *** *** *** ***


Intro, part 2                                         (x2)|
|---------------------------------------------------------|
|---------------------------------------------------------|
|---------------------------------------------------------|
|---------------------------------------------------------|
|-000--------222-333-222-------000------------1"-5"-4"-0"-|
|-000--------222-333-222-------000--------222-------------|
pm***        *** *** ***       ***        ***


Riff 1
|-------------------------------------------------------------------|
|-------------------------------------------------------------------|
|-------------------------------------------------------------------|
|-------------------------------------------------------------------|
|-----8---7---5---4---5---7---55-----8---7---5---4h5-7//8-7h8-8//10-|
|-000---0---0---0---0---0---0----000---0---0---0--------------------|
pm***   *   *   *   *   *   *    ***   *   *   *

|-------------------------------------------------|
|-------------------------------------------------|
|-------------------------------------------------|
|-------------------------------------------------|(play Riff 1 twice
|----12"-10"-8"-12"-10"-8"----10"-8"-7"-10"-8"-7"-| altogether)
|-8"-----------------------7"---------------------|  


Riff 2                                                    (x2)
|------------------------------------------------------------|
|------------------------------------------------------------|
|------------------------------------------------------------|
|---------3----------2------------------7----------5------2--|
|---------5----------4------------------8----------7------4--|
|-000-000----000-000----000-000-000-000----000-000----000----|
pm*** ***    *** ***    *** *** *** ***    *** ***    ***


Riff 3
|---------------------------------------------------|
|---------------------------------------------------|
|---------------------------------------------------|
|---------------------------------------------------|
|----10"-8"-7"----10"-8"-7"----8"-7"-5"----8"-7"-5"-|
|-8"-----------8"-----------7"----------7"----------|

|---------------------------------------------------|
|---------------------------------------------------|
|---------------------------------------------------|
|---------------------------------------------------|
|----10"-8"-7"----10"-8"-7"----8"-7"-5"-4"-5"-7"-8"-|
|-8"-----------8"-----------7"----------------------|


(gtr. I)
|---------------------------------------------------|
|---------------------------------------------------|
|---------------------------------------------------|
|---------------------------------------------------|
|----10"-8"-7"----10"-8"-7"----8"-7"-5"----8"-7"-5"-|
|-8"-----------8"-----------7"----------7"----------| \
                                                       \
(gtr. II)                                               \
|-------------------------------------------------|     /
|-------------------------------------------------|    /
|-------------------------------------------------|   /
|----8"-7"-5"----8"-7"-5"----7"-5"-------7"-5"----|
|----------------------------------8"----------8"-|
|-8"----------8"----------7"----------7"----------|


(gtr. I)
|------------------------------------------------------|
|------------------------------------------------------|
|------------------------------------------------------|
|------------------------------------------------------|
|----10"-8"-7"----10"-8"-7"-5"-4"-5"-7"-8"-10"-12"-10"-|
|-8"-----------8"--------------------------------------| \
                                                          \
(gtr. II)                                                  \
|--------------------------------------------------|       / 
|--------------------------------------------------|      /
|--------------------------------------------------|     /
|----8"-7"-5"----8"-7"-5"----------5"-7"-8"-10"-8"-|
|-------------------------8"-7"-8"-----------------|
|-8"----------8"-----------------------------------|


(both gtrs)
|--------------------------------|
|--------------------------------|
|--------------------------------|
|-------.------------------.---.-|
|-0000000----------------000-000-|
|-0000000----------------000-000-|
pm*******                *** ***


Breakdown                         (x3)
|-------------------------------------|
|-------------------------------------|
|-------------------------------------|
|-------.-------.-.------.-.----.---.-|
|-0000000-----000-0----000-0--000-000-|
|-0000000-----000-0----000-0--000-000-|
pm*******     *** *    *** *  *** ***

|-------------------------------------|
|-------------------------------------|
|-------------------------------------|
|-------.-------.-.------.-.----------|
|-0000000-----000-0----000-0--000-000-|
|-0000000-----000-0----000-0--111-111-| (let last two triplets ring)
pm*******     *** *    *** *  *** ***

                                  (x4)
|-------------------------------------|
|-------------------------------------|
|-------------------------------------|
|-------------------------------------|
|-0000000-~-~-000-0-~-~-~-~-~-000-000-|
|-1111111-~-~-111-1-~-~-~-~-~-111-111-| 
pm*******     *** *           *** ***


Riff 3                         
|-----------------------------------------------------------------------|
|-----------------------------------------------------------------------|
|-----------------------------------------------------------------------|
|-----------------4\\3-----3\\2----------------------4\\3-----3\\2---*--|
|-0-1-0-3-1-3-2-1-3\\2-3-2-2\\1-2-1--0-1-0-3-1-3-2-1-3\\2-3-2-2\\1---2b-|
|-0-1-0-3-1-3-2-1------3-2------2-1--0-1-0-3-1-3-2-1------3-2------1----|
pm* * * * * * * *      * *      * *  * * * * * * * *      * *      *


|----------------------------------------------------------------------|
|----------------------------------------------------------------------|
|----------------------------------------------------------------------|
|-----------------4\\3-----3\\2----------------------4\\3-----3\\2-----|
|-0-1-0-3-1-3-2-1-3\\2-3-2-2\\1-2-1--0-1-0-3-1-3-2-1-3\\2-3-2-2\\1-2-1-|
|-0-1-0-3-1-3-2-1------3-2------2-1--0-1-0-3-1-3-2-1------3-2------2-1-|
pm* * * * * * * *      * *      * *  * * * * * * * *      * *      * *


Riff 4
|------------------------------------------------------------------|
|------------------------------------------------------------------|
|------------------------------------------------------------------|
|-------------------12"-10"----------------------------------------|
|----8"-12"-10"-13"---------12"-----12-----12---12-----8-----8---8-|
|-0"----------------------------000----0-0----0----000---0-0---0---|
pm                              ***    * *    *    ***   * *   *

|---------------------------------------------------------------------|
|---------------------------------------------------------------------|
|---------------------------------------------------------------------|
|-------------------12"-10"-------------------------------------------|
|----8"-12"-10"-13"---------12"-----12-----12---12-----10-----12---12-|
|-0"----------------------------000----0-0----0----000----0-0----0----|
pm                              ***    * *    *    ***    * *    *

|------------------------------------------------------------------|
|------------------------------------------------------------------|
|------------------------------------------------------------------|
|-------------------12"-10"----------------------------------------|
|----8"-12"-10"-13"---------12"-----12-----12---12-----8-----8---8-|
|-0"----------------------------000----0-0----0----000---0-0---0---|
pm                              ***    * *    *    ***   * *   *

|------------------------------------------------------------------|
|------------------------------------------------------------------|
|------------------------------------------------------------------|
|-------------------12"-10"----------------------------------------|
|----8"-12"-10"-13"---------12"-----12-----12---12-----------------|
|-0"----------------------------000----0-0----0----000-8-0-0-8-0-8-|
pm                              ***    * *    *    ***   * *   *


Riff 5, part 1
|-------------------------------------------------------------|
|-------------------------------------------------------------|
|-------------------------------------------------------------|
|-------------------------------------------------------------|
|-------------------------------------------------1"-5"-4"-0"-|
|-1p0-0-0-0-0-0-0-1p0-0-0-3p2-1-0-1p0-0-0-0-0-0-0-------------|
pm    *   *   * *     * *       *     *   *   * *


(gtr. I)
|-------------------------------------------------------------|
|-------------------------------------------------------------|
|-------------------------------------------------------------|
|-------------------------------------------------------------|
|-------------------------------------------------1"-5"-4"-0"-|
|-1p0-0-0-0-0-0-0-1p0-0-0-3p2-1-0-1p0-0-0-0-0-0-0-------------| \
pm    *   *   * *     * *       *     *   *   * *                \
                                                                  \
(gtr. II)                                                         /
|-------------------------------------------------------------|  /
|-------------------------------------------------------------| /
|-------------------------------------------------------------|
|-------------------------------------------------------------|
|-------------------------------------------------5"-8"-7"-4"-|
|-1p0-0-0-0-0-0-0-1p0-0-0-3p2-1-0-1p0-0-0-0-0-0-0-------------|
pm    *   *   * *     * *       *     *   *   * *


Riff 5, part 2
(both gtrs)                                                 
|-----------------------------------------------------------------|
|-----------------------------------------------------------------|
|-----------------------------------------------------------------|
|-----------------------------------------------------------------|
|-1p0---0---0-0-0-3-2-1-0-2-1-0-0-1p0---0---0-0-0-3-2-1-0-2-1-0-0-|
|-1p0-0-0-0-0-0-0-3-2-1-0-2-1-0-0-1p0-0-0-0-0-0-0-3-2-1-0-2-1-0-0-|
pm    *   *   * * * * * * * * * *     *   *   * *

|-------------------------------------------------|
|-------------------------------------------------|
|-------------------------------------------------|
|-------------------------------------------------|
|-1p0---0---0-0-0-3-2-1-0-2-1-0-0-1p0---0---0-0-0-|
|-1p0-0-0-0-0-0-0-3-2-1-0-2-1-0-0-1p0-0-0-0-0-0-0-|
pm    *   *   * * * * * * * * * *     *   *   * *

|-------------------------------|
|-------------------------------|
|-------------------------------|
|-------------------------------|
|-77-6-4-3-66-4-3-2_------------|
|-88-7-5-4-77-5-4-3_------------|
pm** * * * ** * * *


Outro            (x3)|
|--------------------|---------------------------|
|--------------------|---------------------------|
|--------------------|---------------------------|
|--------------------|---------------------------|
|-2-1-1-2-1-1_-------|-2-1-1-2-1--~--1--~--------|
|-3-2-2-3-2-2_-------|-3-2-2-3-2--~--2--~--1br-~-|
pm* * * * * *          * * * * *     *

                                        (x2)
|-------------------------------------------|
|-------------------------------------------|
|-------------------------------------------|
|-------------------------------------------|
|-0-0-0-0-0-0_------0-0-0-0-2-----3---------|
|-1-0-0-1-0-0_------1-0-0-1---3-2---4-3-2-1-|
pm* * * * * *       * * * * 

                (x4)
|-------------------|
|-------------------|
|-------------------|
|-------------------|
|-0-0-0-0-0-0_------|
|-1-0-0-1-0-0_------|
pm* * * * * *


That's it. Can't believe no one ever tabbed this correctly. It's pretty easy if 
you can play fast at all. It's a really sick song to jam to, though, and my band 
is gonna cover it. If we ever play it live and record video of it, I'll post it to 
my profile. Anyways, rate...comment...stay metal \m/





Comments


Popular Carnifex tabs & chords
Dead But Dreaming Tabs
Dead In My Arms Tabs
Entombed Monarch Tabs
Genocide Initiative Tabs
In Coalesce With Filth And Faith 1 Tabs
Names Mean Nothing Tabs
Sadistic Embrace Tabs
Slit Wrist Savior Tabs
Sorrowspell Tabs
To My Dead And Dark Dreams Tabs


Song lyrics



↑ Back to top | Tablatures and chords are parodies/interpretations of the original songs. You may use it for private study, scholarship, research or language learning purposes only
© 2014 AZChords.com Contact us | Privacy policy | DMCA | Add/correct tabs | Request tabs | Top 50 tabs