>
 >
Hell Chose Me 2

Hell Chose Me 2 Guitar Tabs

Carnifex - Hell Chose Me 2 chords, tabs, tablatures, lyrics

Guitar lessons | Add/correct | Request | Top 50 tabs Artists:  A B C D E F G H I J K L M N O P Q R S T U V W X Y Z 0-9

Hell Chose Me 2 Guitar Tabs – Carnifex

CD, Sheet music, Poster

Do you like Hell Chose Me 2? Share with your friends now
TabsTabs v2Tabs v3Tabs v4
Hell Chose Me - Carnifex



_Palm Mute



(gtr 1)Riff 1a
e|----------------|----------------|----------------|----------------|
B|----------------|----------------|----------------|----------------|
G|----------------|----------------|----------------|----------------|
D|----------------|----------------|----------------|----------------|
A|----------------|----------------|----------------|----------------|
E|3-2-1-5555553-2-|1-55555544444444|3-2-1-5555553-2-|1-55555566666666|
A|3-2-1-------3-2-|1---------------|3-2-1-------3-2-|1---------------|
  - - -       - -  -                - - -       - -  - 

(gtr 2)Riff 1a
e|----------------|----------------|----------------|----------------|
B|----------------|----------------|----------------|----------------|
G|----------------|----------------|----------------|----------------|
D|----------------|----------------|----------------|----------------|
A|------333333----|--33333322222222|------333333----|--33333344444444|
E|3-2-1-------3-2-|1---------------|3-2-1-------3-2-|1---------------|
A|3-2-1-------3-2-|1---------------|3-2-1-------3-2-|1---------------|
  - - -       - -  -                - - -       - -  -

(gtr 1)Riff 1b
e|----------------|----------------|------------|------------|------------|
B|----------------|----------------|------------|------------|------------|
G|----------------|----------------|------------|------------|------------|
D|----------------|----------------|------------|------------|------------|
A|----------------|----------------|------------|------------|------------|
E|3-2-1-5555553-2-|1-55555544444444|3-2-1-555555|3-2-1-2-1-0-|1-2-1-4-3-2-|
A|3-2-1-------3-2-|1---------------|3-2-1-------|3-2-1-2-1-0-|1-2-1-4-3-2-|
  - - -       - -  -                - - -       - -  - - - - - - - - - 

===========================================================================


Riff 2-both guitars
e|----------------|----------------|----------------|----------------|
B|----------------|----------------|----------------|----------------|
G|----------------|----------------|----------------|----------------|
D|----------------|----------------|----------------|----------------|
A|3-----------3---|--------3-------|2-----------2---|--------2-------|
E|----------------|------------4---|----------------|------------3---|
A|----111-111-----|111-111---------|----000-000-----|000-000---------|
      --- ---      --- ---              --- ---      --- ---


e|----------------|----------------|----------------|----------------|
B|----------------|----------------|----------------|----------------|
G|----------------|----------------|----------------|----------------|
D|----------------|----------------|----------------|----------------|
A|3-----------3---|--------3-------|----------------|----------------|
E|----------------|------------4---|1111111100004444|----------------|
A|----111-111-----|111-111---------|----------------|4444444433333333
      --- ---      --- ---

===========================================================================

Riff 3 both guitars
e|----------------------------------------------------------------|
B|----------------------------------------------------------------|
G|----------------------------------------------------------------|
D|----------------------------------------------------------------|
A|3-----3-----3---2-----2-----2---3-----3-----3---0-----3-2-1-2-1-|
E|3-6-5-3-6-5-3-6-2-5-3-2-5-3-2-5-3-6-5-3-6-5-3-6-0-3-2-2-1-0-1-0-|
A|--6-5---6-5---6---5-3---5-3---5---6-5---6-5---6---3-2-3-2-1-2-1-|
    - -   - -   -   - -   - -   -   - -   - -   -   - - - - - - -

===========================================================================


Riff 4(a) both guitars all trem and palm muted.
e|-------------------------------------------------------------------|
B|-------------------------------------------------------------------|
G|-------------------------------------------------------------------|
D|-------------------------------------------------------------------|
A|-------------------------------------------------------------------|
E|--5-7-5-8-7-5-----7-8-7-10-8-7-----5-7-5-8-7-5-----7-8-7-10--------|
A|0-------------8-7--------------8-7-------------8-7----------8-7-5--|

(gtr 1)Riff 4(b) all open trem
e|----------------------------------------------------------------|
B|----------------------------------------------------------------|
G|----------------------------------------------------------------|
D|----------------------------------------------------------------|
A|----------------------------------------------------------------|
E|--2-4-2-5-4-2-----4-5-4-7-5-4-----2-4-2-5-4-2-----2-4-2-5-------|
A|0-------------5-4-------------5-4-------------5-4---------5-4-2-|

(gtr 2)Riff 4(b) All trem picked
e|---------|-----------|------------|------------|
B|---------|-----------|------------|------------|
G|---------|-----------|------------|------------|
D|---------|-----------|------------|------------|
A|---------|-----------|------------|------------|
E|--8-10-8-|11-10-8----|---10-11-10-|13-11-10----|
A|0--------|--------11-|10----------|---------11-|


e|----------|-----------|------------|-----------|
B|----------|-----------|------------|-----------|
G|----------|-----------|------------|-----------|
D|----------|-----------|------------|-----------|
A|----------|-----------|------------|-----------|
E|---8-10-8-|11-10-8----|---10-11-10-|13---------|
A|10--------|--------11-|10----------|---11-10-8-|


===========================================================================


(gtr 1)Riff 5 all single notes are trem picked
e|----------------------------------------------------------------|
B|----------------------------------------------------------------|
G|----------------------------------------------------------------|
D|----------------------------------------------------------------|
A|0--0--------0--0--------5--------0--0-------0--0----------------|
E|0--0--5-8-7-0--0--5-8-7---8-4-7--0--0-5-8-7-0--0-5-8-7---5-4----|
A|0--0--------0--0-----------------0--0-------0--0-------8-----7--|
  -  -        -  -                 -  -       -  -               

(gtr 2)Riff 5 all single notes are trem picked
e|--------------|--------------|-----------|
B|--------------|--------------|-----------|
G|--------------|--------------|-----------|
D|--------------|--------------|-----------|
A|0--0----------|0--0----------|8----------|
E|0--0--8-11-10-|0--0--8-11-10-|--11-7-10--|
A|0--0----------|0--0----------|-----------|
  -  -           -  -                                   

e|-------------|-------------|----------|
B|-------------|-------------|----------|
G|-------------|-------------|----------|
D|-------------|-------------|----------|
A|0--0---------|0--0---------|----------|
E|0--0-8-11-10-|0--0-8-11-10-|---8-7----|
A|0--0---------|0--0---------|11-----10-|
  -  -          -  - 

===========================================================================



(gtr 1)Riff 6
e|--------------------------------------------|
B|--------------------------------------------|
G|--------------------------------------------|
D|--------------------------------------------|
A|----------3333---------------4444---3-------|
E|0-0--0-0--3333---0-----------2222---1---2-1-|
A|1-1--1-1---------1----------------------2-1-|
 
 - -  - -         -                      - -

(gtr 2)Riff 6 Tapping
e|--------------------------------------------|
B|--------------------------------------------|
G|--------------------------------------------|
D|--------------------------------------------|
A|--------------------------7t10--8t11--5t8---|
E|6t9--8t11--5t8--6t9--8t11-------------------|
A|--------------------------------------------|


===========================================================================


(gtr 1)Riff 7 all trem picked
e|-----------------------------------------------------------------|
B|-----------------------------------------------------------------|
G|-----------------------------------------------------------------|
D|-----------------------------------------------------------------|
A|--------5-----5---------7---5-7---------5-----5------------------|
E|--5-7-8---7-8---4-5-7-8---8-------5-7-8---7-8---4-5-7-8-5-4------|
A|0-------------------------------0---------------------------8-7--|


(gtr 2)Riff 7 all trem picked
e|--------------------------------------------------------------------|
B|--------------------------------------------------------------------|
G|--------------------------------------------------------------------|
D|--------------------------------------------------------------------|
A|---------8-----8---------10--8-10--------8-----8--------------------|
E|--8-10-11-10-11-7-8-10-11--11-----8-10-11-10-11--7-8-10-11-8-7------|
A|0--------------------------------0----------------------------11-10-|

===========================================================================



Ending b-down
e|-------------------------------------------|
B|-------------------------------------------|
G|-------------------------------------------|
D|-------------------------------------------|
A|-------------------------------------------| 
E|1111-2221-4441-2---1112-1-1112-1-4444-00000|
A|1111-2221-4441-2---1112-1-1112-1-4444-00000|





Comments


Popular Carnifex tabs & chords
Entombed Monarch Tabs
Lie To My Face Tabs
Lie To My Face 2 Tabs
Lie To My Face Intro Tabs
Love Lies In Ashes Tabs
Names Mean Nothing 1 Tabs
Sadistic Embrace Tabs
Sorrow Spell Intro Tabs
Sorrowspell Tabs
The Diseased And The Poisoned Intro 1 Tabs


Song lyrics



↑ Back to top | Tablatures and chords are parodies/interpretations of the original songs. You may use it for private study, scholarship, research or language learning purposes only
© 2014 AZChords.com Contact us | Privacy policy | DMCA | Add/correct tabs | Request tabs | Top 50 tabs