>
 >
Hell Chose Me 1

Hell Chose Me 1 Guitar Tabs

Carnifex - Hell Chose Me 1 chords, tabs, tablatures, lyrics

Guitar lessons | Add/correct | Request | Top 50 tabs Artists:  A B C D E F G H I J K L M N O P Q R S T U V W X Y Z 0-9

Hell Chose Me 1 Guitar Tabs – Carnifex

CD, Sheet music, Poster

Do you like Hell Chose Me 1? Share with your friends now
TabsTabs v2Tabs v3Tabs v4

Tuning: Drop A (low to high: A-E-A-D-F#-B)

KEY
 __________________
| ~~~ = vibrato    |
| " = trem pick    |
| pm* = palm mute  |
| _ = silence note |
|__________________|


Intro
(gtr.I)                                   (x5)|
|---------------------------------------------|
|---------------------------------------------|
|---------------------------------------------|
|---------------------------------------------|
|-3-2-0-5"--3-2-0-5"-4"-3-2-0-5"--3-2-0-5"-6"-|
|-3-2-0-----3-2-0-------3-2-0-----3-2-0-------|
pm* * *     * * *       * * *     * * *

(gtr.II)                                  (x5)|
|---------------------------------------------|
|---------------------------------------------|
|---------------------------------------------|
|-------3"--------3"-2"-------3"--------3"-4"-|
|-3-2-0-----3-2-0-------3-2-0-----3-2-0-------|
|-3-2-0-----3-2-0-------3-2-0-----3-2-0-------|
pm* * *     * * *       * * *     * * *


(gtr.I)
|-----------------------------------|
|-----------------------------------|
|-----------------------------------|
|-----------------------------------|
|-3-2-0-5"--3-2-0-2-1-0-3-2-0-4-3-0-|
|-3-2-0-----3-2-0-2-1-0-3-2-0-4-3-0-|
pm* * *     * * * * * * * * * * * *

(gtr.II)
|-----------------------------------|
|-----------------------------------|
|-----------------------------------|
|-------3"--------------------------|
|-3-2-0-----3-2-0-2-1-0-3-2-0-4-3-0-|
|-3-2-0-----3-2-0-2-1-0-3-2-0-4-3-0-|
pm* * *     * * * * * * * * * * * *


(gtr.I)                                   
|-------------------------------------------------------------------|
|-------------------------------------------------------------------|
|-------------------------------------------------------------------|
|-------------------------------------------------------------------|
|-3-2-0-5"--3-2-0-5"-4"-3-2-0-5"--3-2-0-5"-6"-3-2-0-5"--3-2-0-5"-4"-|
|-3-2-0-----3-2-0-------3-2-0-----3-2-0-------3-2-0-----3-2-0-------|
pm* * *     * * *       * * *     * * *       * * *     * * *

(gtr.II)                                  
|-------------------------------------------------------------------|
|-------------------------------------------------------------------|
|-------------------------------------------------------------------|
|-------3"--------3"-2"-------3"--------3"-4"-------3"--------3"-2"-|
|-3-2-0-----3-2-0-------3-2-0-----3-2-0-------3-2-0-----3-2-0-------|
|-3-2-0-----3-2-0-------3-2-0-----3-2-0-------3-2-0-----3-2-0-------|
pm* * *     * * *       * * *     * * *       * * *     * * *


(gtr.I)
|-----------------------------------|
|-----------------------------------|
|-----------------------------------|
|-----------------------------------|
|-3-2-0-5"--3-2-0-2-1-0-3-2-0-4-3-0-|
|-3-2-0-----3-2-0-2-1-0-3-2-0-4-3-0-|
pm* * *     * * * * * * * * * * * *

(gtr.II)
|-----------------------------------|
|-----------------------------------|
|-----------------------------------|
|-------3"--------------------------|
|-3-2-0-----3-2-0-2-1-0-3-2-0-4-3-0-|
|-3-2-0-----3-2-0-2-1-0-3-2-0-4-3-0-|
pm* * *     * * * * * * * * * * * *



Riff 1 (both gtrs)
|-------------------------------------------------|
|-------------------------------------------------|
|-------------------------------------------------|
|-------------------------------------------------|
|-8---------8---------8-4-7---------7---------7-3-|
|---000-000---000-000-------000-000---000-000-----|
pm  *** ***   *** ***       *** ***   *** ***

|-------------------------------------------|
|-------------------------------------------|
|-------------------------------------------|
|-------------------------------------------|
|-8---------8---------8-4--------4"---------|
|---000-000---000-000-----8"--7"----4"--3"--| (repeat riff)
pm  *** ***   *** ***



Riff 2 (both gtrs)
|-----------------------------------|
|-----------------------------------|
|-----------------------------------|
|-3-----3-----3----2-----2-----2----|
|-3-3-2-3-3-2-3-3--2-2-1-2-2-1-2-2--|
|---4-3---4-3---4----3-2---3-2---3--|
pm  * *   * *   *    * *   * *   *

|----------------------------------|
|----------------------------------|
|----------------------------------|
|-3-----3-----3----2---------------|
|-3-3-2-3-3-2-3-3--2-2-1-0-0-0-1-0-|
|---4-3---4-3---4----3-2-1-0-1-2-0-| (repeat riff)
pm  * *   * *   *    * * * * * * *



Riff 3 
(gtrs.I+II)
|-------------------------------------------------|
|-------------------------------------------------|
|-------------------------------------------------|
|-------------------------------------5"----------|
|----5"-7"-5"-8"-7"-5"-------7"-8"-7"----8"-7"----|
|-0"-------------------8"-7"-------------------7"-|

|-------------------------------------------------|
|-------------------------------------------------|
|-------------------------------------------------|
|-------------------------------------5"----------|
|----5"-7"-5"-8"-7"-5"-------7"-8"-7"-------------|
|-0"-------------------8"-7"-------------5"-3"-2"-|


(gtr.I)
|-------------------------------------------------|
|-------------------------------------------------|
|-------------------------------------------------|
|-------------------------------------5"----------|
|----5"-7"-5"-8"-7"-5"-------7"-8"-7"----8"-7"----|
|-0"-------------------8"-7"-------------------7"-|

(gtr.II)
|-------------------------------------------------|
|-------------------------------------------------|
|-------------------------------------------------|
|-------5"----6"-5"----------5"-6"-5"-8"-6"-5"----|
|----8"----8"-------8"-5"-4"-------------------4"-|
|-0"----------------------------------------------|


(gtr.I)
|-------------------------------------------------|
|-------------------------------------------------|
|-------------------------------------------------|
|-------------------------------------5"----------|
|----5"-7"-5"-8"-7"-5"-------7"-8"-7"----8"-------|
|-0"-------------------8"-7"----------------8"-7"-|

(gtr.II)
|-------------------------------------------------|
|-------------------------------------------------|
|-------------------------------------------------|
|-------5"----6"-5"----------5"-6"-5"-8"-6"-------|
|----8"----8"-------8"-5"-4"----------------5"-4"-|
|-0"----------------------------------------------|



Riff 4
(gtr.I)
|-------------------------------------------|
|-------------------------------------------|
|-------------------------------------------|
|-------------------------------5"----------|
|-0--0--5"-8"-7"-0--0--5"-8"-7"----8"-------|
|-0--0-----------0--0-----------------8"-7"-|

(gtr.II)
|---------------------------------------------|
|---------------------------------------------|
|---------------------------------------------|
|----------6"-5"----------6"-5"-8"-6"----*----|
|-0--0--8"-------0--0--8"-------------5"-7~~~-|
|-0--0-----------0--0-------------------------|


(gtr.I)
|-------------------------------------------|
|-------------------------------------------|
|-------------------------------------------|
|-------------------------------------------|
|-0--0--5"-8"-7"-0--0--5"-8"-7"----8"-7"-0"-|
|-0--0-----------0--0-----------8"----------|

(gtr.II)
|-------------------------------------------|
|-------------------------------------------|
|-------------------------------------------|
|----------6"-5"----------6"-5"-0"-6"-5"----|
|-0--0--8"-------0--0--8"----------------4"-|
|-0--0-----------0--0-----------------------| (repeat riff)



Riff 5 (both gtrs)              (x4)|
|-----------------------------------|
|-----------------------------------|
|-----------------------------------|
|-----------4444---------3333-2-----|
|-1-1--1-1--3333-1_------2222-1-1-1-|
|-1-1--1-1-------1_-------------2-2-|  *(tapping solo coming soon)*
pm* *  * *       *              * *



Riff 6 (all trem picked)
(gtr.I)
|---------------------------------|
|---------------------------------|
|---------------------------------|
|---------5-----5-------5-7---7-5-|
|---5-7-8---7-8-----7-8-----8-----|
|-0---------------0---------------|

(gtr.II)
|------------------------------------------|
|------------------------------------------|
|------------------------------------------|
|-----------8-------8---------8-10----8-10-|
|---8-10-11---10-11-----10-11------11------|
|-0-------------------0--------------------|


(gtr.I)
|---------------------------------|
|---------------------------------|
|---------------------------------|
|---------5-----5-------5---------|
|---5-7-8---7-8-----7-8---7-------|
|-0---------------0---------8-7---|

(gtr.II)
|------------------------------------------|
|------------------------------------------|
|------------------------------------------|
|-----------8-------8---------8------------|
|---8-10-11---10-11-----10-11---10---------|
|-0-------------------0------------12-11---| (repeat riff)



>>> Intro (different number of times played, so just listen for it)


>>> Riff 1 (x2)


Riff 7 (both gtrs)
|-------------------|
|-------------------|
|-------------------|
|-7-~-~-~-~-~-------|
|-5-~-~-~-~-~-0-0-0-|
|-7-~-~-~-~-~-0-0-0-|
pm            * * *


Outro (both gtrs)                                  (x3)|
|------------------------------------------------------|
|------------------------------------------------------|
|------------------------------------------------------|
|------------------------------------------------------|
|------------------2_------2-1_-----2-1_---------------|
|-2111--2111--4111-2_---1112-1_--1112-1_--4444--111100-| 
pm****  ****  **** *    **** *   **** *   ****  ******

"HELL!...CHOSE!...ME!!!"

                                                   (x4)|
|------------------------------------------------------|-----|
|------------------------------------------------------|-----|
|------------------------------------------------------|-----|
|------------------------------------------------------|-----|
|-2111--2111--4111-2_---1112-1_--1112-1_--4444---------|-0_--|
|-2111--2111--4111-2_---1112-1_--1112-1_--4444--111100-|-0_--|
pm****  ****  **** *    **** *   **** *   ****  ******



That's it. Sick song, really fun to play. Can't wait for the new album. Anyways, RATE/COMMENT!





Comments


Popular Carnifex tabs & chords
Entombed Monarch Intro Tabs
Genocide Initiative Tabs
Hell Chose Me 3 Tabs
In Coalesce With Filth And Faith Tabs
Lie To My Face 1 Tabs
Lie To My Face Intro Tabs
Names Mean Nothing 1 Tabs
Sorrow Spell Intro Tabs
The Diseased And The Poisoned Tabs
Until I Feel Nothing Tabs


Song lyrics



↑ Back to top | Tablatures and chords are parodies/interpretations of the original songs. You may use it for private study, scholarship, research or language learning purposes only
© 2014 AZChords.com Contact us | Privacy policy | DMCA | Add/correct tabs | Request tabs | Top 50 tabs