>
 >
Hoy Es Adios

Hoy Es Adios Guitar Tabs

Carlos Santana - Hoy Es Adios chords, tabs, tablatures, lyrics

Guitar lessons | Add/correct | Request | Top 50 tabs Artists:  A B C D E F G H I J K L M N O P Q R S T U V W X Y Z 0-9

Hoy Es Adios Guitar Tabs – Carlos Santana

CD, Sheet music, Poster

Do you like Hoy Es Adios? Share with your friends now
Tabs
Hoy Es Adios- Santana feat. Alejandro Lerner

Intro: Nylon String Acoustic
E|-0----------------------1-----------------0----------------------------------------|
B|-1----------------------1-----------------1-------------------------5-6-5-------5--|
G|-2----------------------2-----------------2---------------4-5-7-5-7-------7-5-7----|
D|-2--2-2-3-0h2-0h2-0-----3-------------0---2--2-3-2-0----7--------------------------|
A|-0------------------3---3--2-3s5--2-3-----0----------3-----------------------------|
E|-----------------------1-----------------------------------------------------------|
  Am                     F                  Am                                    Am

-------------------------------------------------|
-------------------------------------------------|
------------0-2-0-----------------0--2---4-5-7---|
-3---5---3---------3-2-0-2-----3-----------------|
-------------------------------------------------|
-------------------------------------------------|
 F   G   F      G        Am    F  G  F       G


E|-----------------------------------------------5---7-8-10----|
B|--5--6-6p5---------------------5---5-5-6-5-------------------|
G|-----------7-5-----4-5-7---5-7-------------7-5---------------|
D|---------------7---------------------------------------------|
A|-------------------------------------------------------------|
E|-------------------------------------------------------------|
   Am  F     G   F       G       Am      F   G   F       G

Verse 1:
Am            F  G  F      G   Am             F  G  F   G
E|--------------------------|----------------------------------|
B|--------5-6-5---------5---|-------8-6-5---------5------------|
G|---5-7---------7-5-7------|--------------7-5-7---------------|
D|--------------------------|----------------------------------|
A|--------------------------|----------------------------------|
E|--------------------------|----------------------------------|

Am                  F  G   F      G   Am          F  G  F  G
E|--------------------------------|----------------------------|
B|--------------------------------|-------8-6-5---------5------|
G|--------4-5-4-7-5--4h5--4h5-----|--------------7-5-7---------|
D|-----7----------------------7---|----------------------------|
A|--7-----------------------------|----------------------------|
E|--------------------------------|----------------------------|

          Am       F     G  F            G      Am       F      G      F    G
E|--------------------------------|
B|-------------5-6-5-----5--------|
G|------4-5-7---------7-----------|
D|---7----------------------------|
A|--------------------------------|
E|--------------------------------|

       Am        F     G  F        G        Am       F    G  F   G
E|------------------------------------|
B|-----------------5-6-5-----5--------|
G|-----4-5--4-5-7---------7-----------|
D|---7--------------------------------|
A|------------------------------------|
E|------------------------------------|

Chorus 1:
    Am          F   G    F       G         Am         F  G  F      G
 E|-------------------------------------------------------------5---------------|
B|--5-----------6-5------------------------5------5-5-6-5-----------------------|
G|------------------7-5--------4-5-7--5-7------------------7-5------------------|
D|-----------------------7------------------------------------------------------|
A|------------------------------------------------------------------------------|
E|------------------------------------------------------------------------------|

    Am          F  G    F       G               Am         F      G  F  G
    E|-----------------------------------------------------------------5---------------|
B|--5-----------6-5------------------------------5---5-5-6-5---------------------------|
G|------------------7-5-------4-5-7---5-7---------------------7-5----------------------|
D|----------------------7--------------------------------------------------------------|
A|-------------------------------------------------------------------------------------|
E|-------------------------------------------------------------------------------------|

Verse 2:
Am               F  G  F      G   Am             F  G  F   G
E|-----------------------------|---5----------------------------------|
B|--------5-6-5----5h6p5---5---|--5----8-6-5------------5-5-----------|
G|---5-7---------7-------7-----|-5------------7-5-7-5-7---------------|
D|-----------------------------|--------------------------------------|
A|-----------------------------|--------------------------------------|
E|-----------------------------|--------------------------------------|

Am              F     G     F     G   Am             F  G  F   G
E|---------------------------|
B|---------------------------|
G|--------4-5-4-7-5--4h5-----|
D|-----7-----------------7---|
A|--7------------------------|
E|---------------------------|

          Am        F     G  F            G      Am       F      G      F    G
E|----------------------------------------------------------------------5----|
B|--------5---------6-5--------------------------5-----5-5-6-5---------------|
G|----------------------7-5----------4-5-7--5-7------------------7-5---------|
D|---------------------------7-----------------------------------------------|
A|---------------------------------------------------------------------------|
E|---------------------------------------------------------------------------|

       Am         F    G  F        G         Am       F    G  F   G
E|------------------------------------------------------------5////-7////-8////-10////-|
B|-----5----------6-5------------------------5--5-5-6-5--------------------------------|
G|--------------------7-5-------4-5-7--5-7---------------7-5---------------------------|
D|------------------------7------------------------------------------------------------|
A|-------------------------------------------------------------------------------------|
E|-------------------------------------------------------------------------------------|

Chorus 2:
       Am          F   G                F       G         Am         F  G  F      G
  12////-12----------12-12-13-12--------------------------12-12-12-13-12-------17///-19///--|
-------------------------------15-13----12-13-15--13-15----------------15-13----------------|
-------------------------------------14-----------------------------------------------------|
--------------------------------------------------------------------------------------------|
--------------------------------------------------------------------------------------------|
--------------------------------------------------------------------------------------------|
 Am          F  G              F       G               Am         F      G  F  G
-12----------12-12-13-12-------------------------------12-12-12-13-12-------17------|
-------------------------15-13------12-13-15-----13-15----------------15-13---------|
-------------------------------14---------------------------------------------------|
------------------------------------------------------------------------------------|
------------------------------------------------------------------------------------|
------------------------------------------------------------------------------------|

Interlude: (Pt.1) Nylon String Acoustic
Am  F  G  F  G  Am                F G F                G
                 E|------------------------------------5//////--7//////-8//////--|
B|-------------------------------------------------------------------------------|
G|-------------------------------------------------------------------------------|

  Am            F G F G Am         F            G        F              G
---12--------12--------------------12-----------12-12-12-12--13-13-13--15////-17////-|
------13--10--------------10-12-13-----10-12-13--------------------------------------|
-------------------------------------------------------------------------------------|

Interlude: (Pt.2) Electric Guitar (Distorted)
E|-----------------------------------------------------------------------------------|
B|-----------------------------------------------------------------------------------|
G|------7s9---10-10p9----------------------------9-9-9-10-9---------12s14------------|
D|--------------------12-10------9-10-12--10-12--------------10-12-------------------|
A|---------------------------12------------------------------------------------------|
E|-----------------------------------------------------------------------------------|

-------------------------------------------------------------------------------------|
-------17---18-18p17-15------------------15------15-17---17-17-18-17-15--------------|
-------------------------17-14----16-17------17--------------------------17----------|
-------------------------------------------------------------------------------------|
-------------------------------------------------------------------------------------|
-------------------------------------------------------------------------------------|

-------17b(18)--17b(18)--17b(18)r17---12-15-12------12--12h15p12----12---------------|
------------------------------------------------15-----------------------------------|
-------------------------------------------------------------------------------------|
-------------------------------------------------------------------------------------|
-------------------------------------------------------------------------------------|
-------------------------------------------------------------------------------------|

-------12-12-13-13p12----------------------------------------------------------------|
-----------------------15--13-------------15-------15--17--17--18--17--15------------|
-------------------------------14---16-17-------17-----------------------------------|
-------------------------------------------------------------------------------------|
-------------------------------------------------------------------------------------|
-------------------------------------------------------------------------------------|

       ....................................................rápido
--------------------------15---------------------------------------------------------|
----------15--17-18-17-15----18-17-15----15-17-15-----15-17-----17h20p17-------------|
-------17-----------------------------17-----------17--------------------------------|
-------------------------------------------------------------------------------------|
-------------------------------------------------------------------------------------|
-------------------------------------------------------------------------------------|

------------------------------------------------------------------------------17-----|
-------17-17-18-17-15----------------15------15-17---17-18-17-15--------15s17--------|
----------------------17-14----16-17------17---------------------17------------------|
-------------------------------------------------------------------------------------|
-------------------------------------------------------------------------------------|
-------------------------------------------------------------------------------------|
-------------17---------17------17------17---19-20-19-17-----20p19p17--20p19p17------|
-------15s17------15s17------17------17----------------------------------------------|
-------------------------------------------------------------------------------------|
-------------------------------------------------------------------------------------|
-------------------------------------------------------------------------------------|
-------------------------------------------------------------------------------------|

------20p19p17--20p19p17--20p19p17--20p19p17--20p19p17--20p19p17---20b(21)--(21)-----|
-------------------------------------------------------------------------------------|
-------------------------------------------------------------------------------------|
-------------------------------------------------------------------------------------|
-------------------------------------------------------------------------------------|
-------------------------------------------------------------------------------------|

------(21)r20---17----17------------17----------17------------12h15p12------12-------|
-------------------20-------20b(21)-----20b(21)-------20b(21)------------15----15----|
-------------------------------------------------------------------------------------|
-------------------------------------------------------------------------------------|
-------------------------------------------------------------------------------------|
-------------------------------------------------------------------------------------|

--------------------15-----------15-----------15-------------------------------------|
---13-15---15b(17)------15b(17)------15b(17)-------15b(17)---15b(17)r15--13-15-13-13-|
-------------------------------------------------------------------------------------|
-------------------------------------------------------------------------------------|
-------------------------------------------------------------------------------------|
-------------------------------------------------------------------------------------|

------12--------------------------------------------------17-17-17--19-19-19-20------|
---15----15-13-13------15--17b(19)-(19)r17---15----15--------------------------------|
--------------------17--------------------------17-----------------------------------|
-------------------------------------------------------------------------------------|
-------------------------------------------------------------------------------------|
-------------------------------------------------------------------------------------|

----19-20-22b/////////////------22b--22b--22br------19-20-22-19----------------------|
-------------------------------------------------------------------------------------|
-------------------------------------------------------------------------------------|
-------------------------------------------------------------------------------------|
-------------------------------------------------------------------------------------|
-------------------------------------------------------------------------------------|

[Slash marks (/) equal fast, up & down picking]





Comments


Popular Carlos Santana tabs & chords
Put Your Lights On Bass Tabs
Smooth 3 Chords
Cry Baby Cry Tabs
Incident At Neshabur 1 Tabs
Las Mananitas Tabs
No One To Depend On 1 Tabs
Song Of The Wind Tabs
Victory Is Won Intro 2 Tabs
What Does It Take Tabs
You Are My Kind Intro Tabs


Song lyrics



↑ Back to top | Tablatures and chords are parodies/interpretations of the original songs. You may use it for private study, scholarship, research or language learning purposes only
© 2014 AZChords.com Contact us | Privacy policy | DMCA | Add/correct tabs | Request tabs | Top 50 tabs