» » »

Carlos Santana, Hoy Es Adios Tabs (ver.2)

Artists:  A B C D E F G H I J K L M N O P Q R S T U V W X Y Z # 

Hoy Es Adios Tabs (ver.2)

Carlos Santana Tabs
Rating:
0/5 (0 votes)
Hoy Es Adios lessons Tabs too difficult? Try these video lessons and learn fast
                (Intro)
                    HOY ES ADIOS-CARLOS SANTANA


tuning: standard

  AM
e)-0---------------------------------------------------------------|
b)-1----------------------------------------------5h6-5h6-5--------|
g)-2----------------------------------------4h5h7-----------7-5h7--|
d)-2-22-3-2-0-----------------2-0-222-3---7------------------------|
a)-0----------3-0-0h2-3-5-3h5-----------3--------------------------|
e)-0---------------------------------------------------------------|

e)--------------------------------------------------------------|
b)----------------------------------------5-55-6-5--------------|
g)-------------4h5/7-5h7------------4h5/7----------7-5-----5-7--|
d)-2-0h2-3-5-7-----------2-0h2-3-5-7--------------------7-7-----|
a)--------------------------------------------------------------|
e)--------------------------------------------------------------|

e)------------------5-7-8-10-|
b)-----5-55-6-5--------------|
g)-5-7----------7-5----------|
d)---------------------------|
a)---------------------------|
e)---------------------------|

/ slide up
\ slide down
h hammer on
p pull off
~ vibrato
+ harmonic
x mute note
            
Submit corrections

comments powered by Disqus
↑ Back to top | Carlos Santana Tabs for Hoy Es Adios. Lyrics for acoustic guitar and electric guitar. Tablatures and chords are parodies/interpretations of the original songs. You may use it for private study, scholarship, research or language learning purposes only