» » »

Game Of Love Tabs (ver.2)

Artists:  A B C D E F G H I J K L M N O P Q R S T U V W X Y Z # 

Game Of Love Tabs (ver.2)

Carlos Santana
Rating:
0/5 (0 votes)

Hard to play? Try these video lessons and learn fast.
                
Game of Love 
Renato Paredes


INTRO
e|--------------------------------10-10-10-10-10-10/12-----------------------------|
B|-----------10--------10-12-----------------------------------11/12-11/12-10-12.--|
G|-10/11.-------11-----------------------------------------------------------------|
D|---------------------------------------------------------------------------------|
A|---------------------------------------------------------------------------------|
E|---------------------------------------------------------------------------------|

e|----------------------------------------------------10-10-10-10-10-12-14-14-12/14---|
B|---------------------11/12-10------10-10/12-----------------------------------------|
G|------9-11-9-11---------------11----------------------------------------------------|
D|-12---------------------------------------------------------------------------------|
A|------------------------------------------------------------------------------------|
E|------------------------------------------------------------------------------------|

e|-12-10-12-----10-12-------|
B|--------------12----------|
G|--------------------------|
D|--------------------------|
A|--------------------------|
E|--------------------------|

chorus

those riff goes after  michelle sings  every line
RIFF 1
e|------------|
B|------------|
G|-------7..--|
D|-7-9--------|
A|------------|
E|------------|

RIFF 2
e|-------------|
B|-------------|
G|-9/11-9-7..--|
D|-------------|
A|-------------|
E|-------------|
 
RIFF 3
e|------------------------------------------------|
B|-10/12-10-12------------------------------------|
G|-------------------10/11.-9/11-9-7-9-7.---------|
D|------------------------------------------------|
A|------------------------------------------------|
E|------------------------------------------------|

RIFF 4
e|-----------------------|
B|-----------------------|
G|-------7-9-7----7------|
D|-7-9----------9--------|
A|-----------------------|
E|-----------------------|

RIFF 5
e|------------------------------------------------------------------------|
B|------------------------------7-7-8-8-10/12-10-10----10-12--------------|
G|-------7-9-7------7-7-9------------------------------11-----------------|
D|-7-9----------9---------------------------------------------------------|
A|------------------------------------------------------------------------|
E|------------------------------------------------------------------------|

2 chorus

in place of RIFF 5:
e|-10-12-14-10-12-10-----------------|
B|-----------------------------12..--|
G|-----------------------------------|
D|-----------------------------------|
A|-----------------------------------|
E|-----------------------------------|

RIFF 6
e|-14/12-10------10-12-------|
B|--------------12-----------|
G|---------------------------|
D|---------------------------|
A|---------------------------|
E|---------------------------|

SOLO
e|-14..-12-10-12-10-10-12—14/15-15-14-------------------------------------------------|
B|------------------------------------------------------15----------------------------|
G|-----------------------------------------------------------9------------------------|
D|---------------------------------------------------------------12--9-------9-12-9.--|
A|------------------------------------------------------------------------12----------|
E|------------------------------------------------------------------------------------|


e|-10-10-10-12-12-12-14----------17-----------17-----------17-------------|
B|--------------------------------14/15-------14/15-------14/15----etc.. -|
G|------------------------------------------------------------------------|
D|------------------------------------------------------------------------|
A|------------------------------------------------------------------------|
E|------------------------------------------------------------------------|

the rest of the solo you will have to figured out thats all
            
Hard to play? Try these video lessons and learn fast. | Correct




comments powered by Disqus
↑ Back to top | Tablatures and chords are parodies/interpretations of the original songs. You may use it for private study, scholarship, research or language learning purposes only