>
 >
Game Of Love 2

Game Of Love 2 Guitar Tabs

Carlos Santana - Game Of Love 2 chords, tabs, tablatures, lyrics

Guitar lessons | Add/correct | Request | Top 50 tabs Artists:  A B C D E F G H I J K L M N O P Q R S T U V W X Y Z 0-9

Game Of Love 2 Guitar Tabs – Carlos Santana

CD, Sheet music, Poster

Do you like Game Of Love 2? Share with your friends now
Bass TabsChordsTabsTabs v2Tabs v3Tabs v4Ukulele


This is my first tab of a Santana song. This may not be 100% correct.
It is open to corrections, coz I tabbed it on my acoustic.
In the video, I saw Meech play Em-D throughout the song.

Intro:

-----5----5-7/10-10-10/12--------------------------------7-5\4/5----/10-10----
-/7------------------------10h12-10h12-10/12------7p5h7-----------------------
------------------------------------------------7-----------------------------
------------------------------------------------------------------------------
------------------------------------------------------------------------------
------------------------------------------------------------------------------
                                                                              

-10-10-10-10-12/14-14-12-12p10-12p10-10/12------------------------------------
------------------------------------------------------------------------------
------------------------------------------------------------------------------
------------------------------------------------------------------------------
------------------------------------------------------------------------------
------------------------------------------------------------------------------
 Verse1: You arrange them by yourself. Hehe.                                  

-7p0--------|-----------------------------------------------------------------
-7p5--7-----|-----5-7-5-----5-7p5h7------------------7b-7b-5-------5----------
--------7-7-|---7-------7-7----------------4-7/9/------------7-7-7---7-7------
------------|-9------------------------4h7------------------------------------
------------|-----------------------------------------------------------------
------------|-----------------------------------------------------------------
 Chorus: (Just takes a little bit of this..)                                  

------------------------7p5-7-------------------------------------------------
-----------/7-5---------------7b--7p5-5h7-5-----------------------------------
-----7----------7---------------------------7-7------------7---7h9-7----------
-7h9---------------------------------------------------7h9---9----------------
------------------------------------------------------------------------------
------------------------------------------------------------------------------
                                                                              

--------------------------7b-5-5-5b/7-----------------------------------------
-------------------7-7-8------------------------------------------------------
-----7---7h9-7-7-9------------------------------------------------------------
-7h9---9----------------------------------------------------------------------
------------------------------------------------------------------------------
------------------------------------------------------------------------------
 Second verse:                                                                

---------------|---------|-5h7p5h7-9-9b-10|-7-------------------------10-10---
-7-5-----5-----|---------|----------------|---5/7-5/7-5-----------------------
-----7-7---7-7b|---7\5\2\|----------------|-------------7/9-------7/9---------
---------------|-7-------|----------------|-------------------7h9-------------
---------------|---------|----------------|-----------------------------------
---------------|---------|----------------|-----------------------------------
                                                                              

-12---------------------------------------------------------------------------
----10/12-10----7-7----------10p7-10p7-7--------------------------------------
--------------------9b-9p7---------------9-7-7-7h9-7-7------------------------
------------------------------------------------------------------------------
------------------------------------------------------------------------------
------------------------------------------------------------------------------
 Second chorus: It's almost the same as the first, w/ this variation:         

-10h12-14-----------------14---------------7----------------------------------
----------15-15-12-12b-------15p12-15----7---7-5-5/7-------7------------------
-----------------------------------------------------9-7-9---9-----------7----
---------------------------------------------------------------9-----7-9------
-----------------------------------------------------------------7h9----------
------------------------------------------------------------------------------
 Solo along with the bit before the handclaps part:                           

-10-12-12/14-141414141414141414141414141414-14b-14b-1414-14-------------------
------------------------------------------------------------15-17-15-15b-12---
------------------------------------------------------------------------------
------------------------------------------------------------------------------
------------------------------------------------------------------------------
------------------------------------------------------------------------------
                                                                              

-15-15b-14------------------------------10-10-10-12-14-14----------17---------
-----------15----------------------12------------------------14h15------------
--------------------------------11--------------------------------------------
-----------------14p12-12-12-12-----------------------------------------------
------------------------------------------------------------------------------
------------------------------------------------------------------------------
                                                                              

-------17-------17----17p14-17p14-17-17-14-17-17-14---------------------------
-14h15----14h15---------------------------------------------------------------
------------------------------------------------------------------------------
------------------------------------------------------------------------------
------------------------------------------------------------------------------
------------------------------------------------------------------------------
                                                                              

-17p14-17p14-17p14-17p14-17p14-17p14-17/18b-18b-18b-18b-18b-18b-18b-18b-------
------------------------------------------------------------------------------
------------------------------------------------------------------------------
------------------------------------------------------------------------------
------------------------------------------------------------------------------
------------------------------------------------------------------------------
                                                                              

-18p14h17-14p12h14-14----------12----------------12-----------------------10--
----------------------15-15-15----12-12-12/15-------14b-10-10-10-12-12-12-----
------------------------------------------------------------------------------
------------------------------------------------------------------------------
------------------------------------------------------------------------------
------------------------------------------------------------------------------
                                                                              

-10/12--------19-19-21-22-21-22p21p19-22p21p19-22p21p19-22p21p19-22-24-19-----
----------/19-----------------------------------------------------------------
------------------------------------------------------------------------------
------------------------------------------------------------------------------
------------------------------------------------------------------------------
------------------------------------------------------------------------------
                                                                              

-19v-21-19-19v-17-14-12/14-12-10-12-10v----10b--------------------------------
-----------------------------------------------10h12h13bp10----12-------------
------------------------------------------------------------------11-9-7-9----
------------------------------------------------------------------------------
------------------------------------------------------------------------------
------------------------------------------------------------------------------
                                                                              

-------10b-----------------------10-12-14-12b-10\\\---------------------------
-----------10h12h14-12-10b----12----------------------------------------------
-7b---------------------------------------------------------------------------
------------------------------------------------------------------------------
------------------------------------------------------------------------------
------------------------------------------------------------------------------
 This comes at the end of the handclap chorus part: (a little bit of pain..)  

----------------10-10-12----14-15-14-15-17------------------------------------
------10--12-12----------------------------16-16b-------------/7-5------------
----9----------------------------------------------------7---------7----------
-12--------------------------------------------------7h9----------------------
------------------------------------------------------------------------------
------------------------------------------------------------------------------
                                                                              

-17h19-17-17---/12----------------17-17p14-17p14-17-17p14-14-17-14--------14--
-------------------15-12-10-12-15----------------------------------15-17b-----
------------------------------------------------------------------------------
------------------------------------------------------------------------------
------------------------------------------------------------------------------
------------------------------------------------------------------------------
                                                                              

-----------|-10-12-14b-14b-14b-14b-14b-14b-14b-14b-14b-14b-|-12-10-12-10-12---
-12-12b----|-----------------------------------------------|------------------
-----------|-----------------------------------------------|------------------
-----------|-----------------------------------------------|------------------
-----------|-----------------------------------------------|------------------
-----------|-----------------------------------------------|------------------
                                                                              

-10---------|-17--14-14-14-15-14--15-17---|-----------------------------------
----12-12/15|---------------------------15|-----------------------------------
------------|-----------------------------|-----------------------------------
------------|-----------------------------|-----------------------------------
------------|-----------------------------|-----------------------------------
------------|-----------------------------|-----------------------------------
 Tinamad na ako e. Sorry. Maybe i'll find the rest out myself later.





Comments


Popular Carlos Santana tabs & chords
The Sensitive Kind Bass Tabs
Daughter Of The Night Chords
Apache Smooth Tabs
Dirty Dancin Intro Tabs
Maria Maria Intro Tabs
Migra Tabs
Se A Cabo Tabs
Why Dont You And I 2 Tabs
I Am Somebody Ukulele
Put Your Lights On Ukulele


Song lyrics



↑ Back to top | Tablatures and chords are parodies/interpretations of the original songs. You may use it for private study, scholarship, research or language learning purposes only
© 2014 AZChords.com Contact us | Privacy policy | DMCA | Add/correct tabs | Request tabs | Top 50 tabs