» » »

Cardigans, Laika Tabs (ver.2)

Artists:  A B C D E F G H I J K L M N O P Q R S T U V W X Y Z # 

Laika Tabs (ver.2)

Cardigans Tabs
Rating:
0/5 (0 votes)
Laika lessons Tabs too difficult? Try these video lessons and learn fast
                -------------------------------------------------------------------------------
                                       Laika - The Cardigans
-------------------------------------------------------------------------------

Tuning:Standard



e|---------2---7--------2---------------------------------------|
B|-----0-3---3---10\3-3-----------------8-8/12------------------|
G|--------------------------------9-7-9--------11--9-11-9-------|
D|--------------------------------------------------------------|
A|--------------------------------------------------------------|
E|---3-------------------------8--------------------------------|


e|---------2---7--------2---------------------------------------|
B|-----0-3---3---10\3-3--------------------------8-7------------|
G|--------------------------------9-7-9-7-9-7-9------7----------|
D|--------------------------------------------------------------|
A|--------------------------------------------------------------|
E|---3-------------------------8--------------------------------|


    Am               D
e|---8----|     e|-------|
B|---10---|     B|---7---|
G|---9----|     G|---7---|
D|--------|     D|---7---|
A|--------|     A|---5---|
E|--------|     E|-------|


End:

e|---------2---7--------2----------|
B|-----0-3---3---10\3-3------------|
G|---------------------------------|
D|---------------------------------|
A|---------------------------------|
E|---3----------------------3------|





************************************

| /   slide up
| \   slide down
| h   hammer-on
| p   pull-off
| ~   vibrato
| +   harmonic
| x   Mute note
| b   Bend
| pb  Pre-bend
| br  Bend release
| pbr Pre-bend release
| brb Bend release bend

************************************
            

comments powered by Disqus
↑ Back to top | Cardigans Tabs for Laika. Lyrics for acoustic guitar and electric guitar. Tablatures and chords are parodies/interpretations of the original songs. You may use it for private study, scholarship, research or language learning purposes only