» » »

Carcass, This Mortal Coil Tabs (ver.1)

Artists:  A B C D E F G H I J K L M N O P Q R S T U V W X Y Z # 

This Mortal Coil Tabs (ver.1)

Carcass Tabs
Rating:
0/5 (0 votes)
Hard to play? Try these video lessons and learn fast.
                Tuning: B-E-A-D-F#-E

Intro riff (both guitars)                      1st ending
----------------------------------------------|-----------------------------
----------------------------------------------|------------------------------
-----5---4---------5---4---2---------5---4----|-----5---4---2---1-------------
---7---7---5-----7---7---5---3-----7---7---5--|---7---5---5---3---2----------
-0-------------0-----------------0------------|-0-----------------------------
----------------------------------------------|-------------------------------
2nd ending
----------------
----------------
-3-6-5-2--------
-3-6-5-2--------
-1-4-3-0--------
----------------

after thats played once the second guitar starts on the harmony:
--------------------------------------------|-----------------------------
--------------------------------------------|-----------------------------
-------9---7--------9---7---5--------9---7--|------9--7---5---4-----------
----10--10--9-----10--10--9--7----10--10--9-|---10--10--9---7---6---------
--0-------------0---------------0-----------|-0---------------------------
--------------------------------------------|-----------------------------
same on the second ending

verse:
-------------------------x*---------------------------------------
--7--777--777--777--5\6--x*--3------------------------------------
--5--555--555--555--3\4--x*--1------------------------------------
*dead note or palm mute on the third fret

riff at the end of the solo:
-----5---4--------2------1-2-1h2p1------5---4--------2-----4-7-4h5p4--------------
---7---7---5--------3-----------------7---7---5--------3--------------------------
-0-----------0*0*-----0-------------0-----------0*0*-----0------------------------
            

comments powered by Disqus
↑ Back to top | Carcass Tabs for This Mortal Coil. Lyrics for acoustic guitar and electric guitar. Tablatures and chords are parodies/interpretations of the original songs. You may use it for private study, scholarship, research or language learning purposes only