» » »

Carcass, Incarnate Solvent Abuse Tabs (ver.2)

Artists:  A B C D E F G H I J K L M N O P Q R S T U V W X Y Z # 

Incarnate Solvent Abuse Tabs (ver.2)

Carcass Tabs
 Rating:
4/5 (4 votes)
Incarnate Solvent Abuse lessons Tabs too difficult? Try these video lessons and learn fast
                Incarnate Solvent Abuse

(Tune down 2.5 steps to B)


Intro (approximately):  Two measures of 6/8, one of 7/8

Riff 1a:

|--------------|-----------|------------| 
|--------------|-----------|------------|  
|-------4------|---4---4---|-4---4---3--|
|---5-3---5-3--|-----------|------------|
|-2------------|-2---2---2-|---2---2----|
|--------------|-----------|------------|
  e e e e e e    e q e e e   q e e e q

|--------------|-----------|------------|  
|--------------|-----------|------------|  
|-------4------|---4---4---|-4---1---1--|  
|---5-3---5-3--|-----------|------------|  
|-2------------|-2---2---2-|---2---2----|  
|--------------|-----------|------------|
  e e e e e e    e q e e e   q e e e q

Harmony:

Riff 1b:

|------------------|-------------|--------------| 
|------------------|-------------|--------------| 
|---------11-------|---11---11---|-11---11---10-| 
|-9-12-10----12-10-|-9----9----9-|----9----9----| 
|------------------|-------------|--------------| 
|------------------|-------------|--------------|

|------------------|-------------|-------------| Then dive A string w/ trem bar
|------------------|-------------|-------------| 
|---------11-------|---11---11---|-11---8---8--| 
|-9-12-10----12-10-|-9----9----9-|----9---9----| 
|------------------|-------------|-------------| 
|------------------|-------------|-------------|

And now 4/4... this gets played four times here...

Riff 2:

|-----------------|-----------------|-----------------|------------------|
|-----------------|-----------------|-----------------|------------------|
|-----------------|-----------------|-----------------|------------------|
|-5-----2-----2---|-5-----2-----2---|-5-----2-----2---|-5-----2-----2----|
|-----------------|-----------------|-----------------|------------------|
|---000---000---0-|---000---000---0-|---333---333---3-|---222---222---2--|
  e sse e sse e e   sim.


Riff 3:

|-----------------|---------------|-----------------|---------------|
|-----------------|---------------|-----------------|---------------|
|-----------------|---------------|-----------------|---------------|
|-----------------|-----------3---|-----------------|-------------3-|
|---5-4---5-4---4-|-5-4---5-4-1---|---5-4---5-4---4-|---5-4---5-4-1-|
|-0-3-2-0-3-2-0-2-|-3-2-0-3-2-----|-0-3-2-0-3-2-0-2-|-0-3-2-0-3-2---|
  e e e e e e e e   e e e e e e q     e e e e e e e e   e e e e e e e e


"Intenacious, intersecting..." etc.  The second guitar does a G5 F#5 A5
bit after "culled..." (on the 2nd repetition of the riff) and then, on 
the fourth repetition, only G5 F#5

****REALLY IMPORTANT : Riff 3 is played after that, but the second ending is a 
****quarter note B5 INSTEAD OF Bb5 into the "truculent shambles" bit...


Riff 4:

|-----------------|-----------------|-----------------|-----------------|
|-----------------|-----------------|-----------------|-----------------|
|-----------------|-----------------|-----------------|-----------------|
|-----------------|-------------4---|-----------------|-----------------|
|--5--------------|-(5)---------2---|-3---------------|-(3)------4-5----|
|--3--------------|-(3)-------------|-1---------------|-(1)------2-3----|
   w                 h.         q     w                  h       e q.

Then the double-bass with riff 3 as before, into the faster bit:

Riff 5:

|------------------------|------------------------|
|------------------------|------------------------|
|------------------------|------------------------|
|----------------------2-|----------------------5-|
|----------------2h3h5---|----------------2h3h5---|
|-00000000-2h3h5---------|-00000000-2h3h5---------|


|------------------------|-------------------|
|------------------------|-------------------|
|------------------------|-------------------|
|----------------------2-|-3200------------3-|
|----------------2h3h5---|------3200-------3-|
|-00000000-2h3h5---------|-----------3200--1-|

|---------------------|-------------------|
|---------------------|-------------------|
|---------------------|-------------------|
|---2---------------2-|---2-------------5-|
|---2---------2h3h5---|---2-------2h3h5---|
|-0-0-0-2h3h5---------|-0-0-2h3h5---------|

|-------------------|------------------|Last time only... Before solo1, play last
|-------------------|------------------|measure 2 times, and before solo2, play
|-------------------|------------------|last measure 3 times
|---2-------------2-|-3200-----------3-|
|---2-------2h3h5---|------3200------3-|
|-0-0-2h3h5---------|-----------320--1-|




Later, under the Amott solo:

Riff 6:

|-----------------|--------------------|--------------------|-----------------|
|-----------------|--------------------|--------------------|-----------------|
|-----------------|--------------------|--------------------|-----------------|
|-9-----9-----9---|-10-----10-----10---|-10-----10-----10---|-9-----9-----9---|
|---777---7-7---7-|----777----7-7----7-|----666----6-6----6-|---666---6-6---6-|
|-----------------|--------------------|--------------------|-----------------|
  e sse e e e e e   sim.

|-----------------|-----------------|-----------------|-----------------|
|-----------------|-----------------|-----------------|-----------------|
|-----------------|-----------------|-----------------|-----------------|
|-7-----7-----7---|-8-----8-----8---|-8-----8-----8---|-7-----7-----7---|
|---555---5-5---5-|---555---5-5---5-|---444---4-4---4-|---444---4-4---4-|
|-----------------|-----------------|-----------------|-----------------|


These are just whole notes...

Riff 7:

|-----------------|-----------------|-----------------|-----------------|
|-----------------|-----------------|-----------------|-----------------|
|-----------------|-----------------|-----------------|-----------------|
|-9---------------|-10--------------|-10--------------|-9---------------|
|-7---------------|-7---------------|-6---------------|-6---------------|
|-----------------|-----------------|-----------------|-----------------|

|-----------------|-----------------|-----------------|-----------------|
|-----------------|-----------------|-----------------|-----------------|
|-----------------|-----------------|-----------------|-----------------|
|-7---------------|-8---------------|-8---------------|-7---------------|
|-5---------------|-5---------------|-4---------------|-4---------------|
|-----------------|-----------------|-----------------|-----------------|

Then there's a riff after the solo played over the top of
this rhythm:

riff 8:

|-----------------------------------------|
|-----------------------------------------|
|------------------------------------3--7-|
|-3-3-2-----3-3-2-----3-3-2------3-3-3--7-|
|-3-3-2-----3-3-2-----3-3-2------3-3-1--5-|
|-1-1-0-----1-1-0-----1-1-0------1-1------|

Riff 9: (Along with riff 8)

|---------------------------------|---------------------------------|
|-----------------9-----7-----6---|-----------------9-----7-----6*7-|
|-------9-8---7-----9-8---8-7---7-|-------9-8---7-----9-8---8-7-----|
|-----9-----9---9-----------------|-----9-----9---9-----------------|
|---7-----------------------------|---7-----------------------------|
|-0-------------------------------|-0-------------------------------|

Riff 10a:

|----------------------------|
|----------------------------|  The last time follow it with an E5, and then
|----------------------------|  play the intro riff a couple of times again
|-2-------------3-2-0--------|  (with the harmony the 2nd time).
|-2--/8-7-------------3-2-0--|
|-0--------0-0---------------|


Harmony

Riff 10b:

|----------------------------|
|----------------------------|  
|----------------------------|  
|-2-------------3-2-0--------|  
|-2--/8-7-------------3-2-0--|
|-0--------0-0---------------|


Steer's guitar solo ("Glue Stiffing"):

|------------------------------------------------15-17-19--------------------
|--------------------------------------12-/17-15----------17-----------------
|----------------------12-----11-12/14---------------------------------------
|-------------------12----14-------------------------------------------------
|----------12-14-15----------------------------------------------------------
|-12-14-15-------------------------------------------------------------------
   trem..................                                                     

|-15h19p15----------------------------------19----------19p15----17p15---------
|----------17----------------------17/19-20----19---/17-------17-------12------
|-------------16----------------16---------------------------------------------
|----------------17-------16-17------------------------------------------------
|-------------------19---------------------------------------------------------
|------------------------------------------------------------------------------
                                                                              

|-15p12----12------------------------------------------------------------------
|-------15---------15p12----12-------------------------------------------------
|--------------/12-------15----15-12-14-br---------------14-14-11-12----11-12--
|--------------------------------------------------------------------14--------
|------------------------------------------------------------------------------
|------------------------------------------------------------------------------
                                                                              

|------------------------------------------------------------------------------
|----12-13-12h13p12----12------------------15-------12-13----12-13-15-12-13----
|-14----------------14----14-br---------12----12-14-------14-------------------
|------------------------------------------------------------------------------
|------------------------------------------------------------------------------
|------------------------------------------------------------------------------
                                                                              
                                                                     V
|----12-14-15-/17-15-14h15p15----14----------/17-15-------12--------15br-------
|-15--------------------------17----17-15-----------17-15----15b-12------------
|-----------------------------------------16-----------------------------------
|------------------------------------------------------------------------------
|------------------------------------------------------------------------------
|------------------------------------------------------------------------------
                                                                              
(note indicated by V, bend and release while picking several times)

Amott's solo ("Viscous Residue Snorting"):

|--------------------------------------------------------------------|
|5~~5-7-8-8b10-8b10-8-7~7b8r~-15b17-15b17-15-13-12h13p12-11-13p12-11-|
|--------------------------------------------------------------------|
|--------------------------------------------------------------------|
|--------------------------------------------------------------------|
|--------------------------------------------------------------------|

|---------------------------19p15--15-19---19--19--17--15--19p15--15-|
|-----------------------17-------19------15--15--15--15--15-----19---|
|-12-11-12p11--------/16--16-----------------------------------------|
|------------12-/14--------------------------------------------------|
|--------------------------------------------------------------------|
|--------------------------------------------------------------------|

|-19-19-20b22-19~--191919191717171715151515-------------------------|
|------------------------------------------191919191717171715151515-|
|-------------------------------------------------------------------|
|-------------------------------------------------------------------|
|-------------------------------------------------------------------|
|-------------------------------------------------------------------|

|-----------------15151515171717171919191922222222-24-24b26-24~~-|
|-1717171719191919-----------------------------------------------|
|----------------------------------------------------------------|
|----------------------------------------------------------------|
|----------------------------------------------------------------|
|----------------------------------------------------------------|
            
Submit corrections

comments powered by Disqus
↑ Back to top | Carcass Tabs for Incarnate Solvent Abuse. Lyrics for acoustic guitar and electric guitar. Tablatures and chords are parodies/interpretations of the original songs. You may use it for private study, scholarship, research or language learning purposes only