>
 >
Embodiment 1

Embodiment 1 Guitar Tabs

Carcass - Embodiment 1 chords, tabs, tablatures, lyrics

Guitar lessons | Add/correct | Request | Top 50 tabs Artists:  A B C D E F G H I J K L M N O P Q R S T U V W X Y Z 0-9

Embodiment 1 Guitar Tabs – Carcass

CD, Sheet music, Poster

Do you like Embodiment 1? Share with your friends now
Bass TabsTabsTabs v2
Solos for "Embodiment" by Carcass


I am happy to say that a lot of people posted me after
the embodiment TAB. Those people are true Carcass fans
and the solos are mainly for them.
(That's for you Evan, PRIMOZ and the rest).

I hadn't had them on files and I didn't quite found
them all before - so, see what trouble I went through.


First Solo by Michael Abbot.
Use Wah-Wah when needed.
Use Digital delay effect on Medium.

This is just one of the Solos on heartwork where Michael
Use the wah-wah in an elastrious dimension.

|------------------------------------------- h ---------- h ------- h ------|
|----/------------------------------------15---17-17---15---17---15---17-17-|
|--12---------------------16--12--------------------------------------------|
|---------14--12--14--12----------14----------------------------------------|
|---------------------------------------------------------------------------|
|---------------------------------------------------------------------------|


|--------------15-------- h -- p -- p --------------------------------------|
|--15--17--19------19--17---19---17---15----17-15-----17-20-17-17-20-17-17--|
|---------------------------------------------------------------------------|
|---------------------------------------------------------------------------|
|---------------------------------------------------------------------------|
|---------------------------------------------------------------------------|


                    /\/\                                          /\/\/\/\
|-----------------19--------------------------------------------19----------|
|--20-17-20-17-17-----------------------------------------------------------|
|------------------------16--14---------------------------------------------|
|--------------------------------17--16--17--16-----17-16-14----------------|
|---------------------------------------------------------------------------|
|---------------------------------------------------------------------------|

Second solo by Bill Steer.
Vibrato is on.

Note: There is string bending almost on every ending tone - just
      do it with a feeling (of death)

|---------------------------------------------------------------------------|
|----/\/---/\/--------------------------------------------------------------|
|--17----12----16------------h--p--p----------------------------------------|
|------------------18--17--17-18-17-15---18--17--15------------h--p---------|
|----------------------------------------------------18--17--17-18-17-------|
|---------------------------------------------------------------------------|


|---------------------------------------------------------------------------|
|---------------------------------------------------------------------------|
|---------------------------------------------------------------------------|
|----------------------15----------------h--p-------------------------------|
|--15--14-----15--18-------18--17--18--17-18-17---18-17-15-14---------------|
|--------------------------------------------------------------16---13------|


|---------------------------------------------------------------------------|
|---------------------------------------------------------------h--p--------|
|-------------------------------------------------12-13-15-13-12-13-12------|
|------------------------------12-13-15-13-12-13-----------------------15---|
|-------------13-15---11----15----------------------------------------------|
|--15---13-15---------------------------------------------------------------|


|---------------------------------------19-15-16-15-------------------------|
|---------------------------------------------------18-16-15-16---/\/\------|
|--12----------h--p------/\/\/\---------------------------------16----------|
|-----15-13--12-13-12--10---------------------------------------------------|
|---------------------------------------------------------------------------|
|---------------------------------------------------------------------------|

|--22-19-20-19-------------------------------------------------h--h----|
|--------------20-17---/\/\---------------------------h--h---12-13-15--|
|--------------------19-------------h--h-----h--h---10-11-13-----------|
|----------------------------------9-10-12-12-14-15--------------------|
|----------------------------------------------------------------------|
|----------------------------------------------------------------------|

|----p--p-------------------------------------------|
|--15-13-12---p--p----------------------------------|
|-----------13-11-10---p--p-----p--p----/\/\/\/\/\--|
|--------------------15-14-12-12-10-9--9------------|
|---------------------------------------------------|
|---------------------------------------------------|

I'm not sure about that last part. Bill is just hard to figure out.
Anyway - a tip: On the Steer Solo - use a lot of vibrato banding -
listen to the solo a lot to get the feeling.

Well It's 4 in the morning. I better get some sleep.

See ya all Death fans.





Comments


Popular Carcass tabs & chords
Black Star 1 Tabs
Corporal Jisgore Quandary Tabs
Empathological Necroticism 1 Tabs
Exhume To Consume 1 Tabs
Foeticide Tabs
Forensic Clinicism Tabs
Genital Grinder 1 Tabs
Pedigree Butchery 1 Tabs
Room 101 Tabs
Tools Of The Trade Tabs


Song lyrics



↑ Back to top | Tablatures and chords are parodies/interpretations of the original songs. You may use it for private study, scholarship, research or language learning purposes only
© 2014 AZChords.com Contact us | Privacy policy | DMCA | Add/correct tabs | Request tabs | Top 50 tabs