» » »

Carcass, Carnal Forge Tabs (ver.2)

Artists:  A B C D E F G H I J K L M N O P Q R S T U V W X Y Z # 

Carnal Forge Tabs (ver.2)

Carcass Tabs
Rating:
2/5 (1 vote)
Carnal Forge lessons Tabs too difficult? Try these video lessons and learn fast
                Carnal Forge
(Tune down 2.5 steps to B)

Woohoo! Thanks to Mike Morton again for tabbing up this tune! I'll tidy it up a little later if
necessary.

These four parts are riff 1 (sorry, it's out of order a bit)
 a guitar 1 (2x)                  guitar 1(3rd time)         
|----------------------------| |--------------------------|
|----------------------------| |--------------------------|
|--3---3---3h4p3---3---------| |--3---3---3h4p3---3-------|
|----------------5---5-4-2---| |----------------5---5-4-2~|
|--------------------------5-| |--------------------------|
|0---0---0-------------------| |0---0---0-----------------|
 '   '   '                      '   '   '                      
 guitar 2 (3rd time)
|-------------------------|
|--2---2--2h3p2---2-------|
|---------------4---4-2-1~|
|-------------------------|
|-------------------------|
|0---0---0----------------|
 '   '   '
guitar 2 (2nd time)             guitar 3 (3rd time)
|----------------------------| |--2---2---2h3p2---2-------|
|--2---2---2h3p2---2---------| |----------------5---5-4-2~|
|----------------4---4-2-1---| |--------------------------|
|--------------------------4~| |--------------------------|
|----------------------------| |--------------------------|
|0---0---0-------------------| |--------------------------|
 '   '   '                            
riff 2  (3x)  (only used needed strings) 
a |--------------1-----3-----|
e |0-00000-00000---0-1---2-1-|
   ' ''''' '''''
riff 3                           riff 4
 8va........                   a |-----------3-----5----|
|-----------------------------|e |33333333333--2-3---3-2|         
|-----------------------------|    '''' '''' 
|---------------------4\3-3p2-|
|-------------2-3-4-5-2\1-1/2-|
|000000333333-0-1-2-3---------|
|-----------------------------|
 ''''''''''''                                  

riff 5 (2 guitars)           
|----------------------------|
|------------------------3h5-|
|----------------4---3---2---|
|--------------6---6---4---2-|
|----------------------------|
|0-00000-00000---------------|
 ' ''''' ''''' '   '   '
riff 6
|----------------------------|
|----------------------------|
|----------------4---3---2---|    riff 7 (under solo)
|--------------6---6---4---3-|      not in real time
|----------------------------|      G |---3--------|  
|0-00000-00000---------------|      D |2--3--2--6--|
 ' ''''' ''''' '   '   '            A |2--1--2--6--|
                                    E |0-----0--4--| 
riff 8 (after riff 7, under solo)
 (2x)              (2x)
|----------------|----------------|
|----------------|----------------|
|----------------|----------------|
|----4---5-4-2---|----8---9-8-6---|
|--2---2-------2-|--6---6-------6-|
|0---------------|4---------------|

solo 1
|-------------------------------------------7/9-7---------|
|-----------------------------------------8-------8-------|
|-----------------4h5h7-5-4-2h4p2-------9-----------9-----|
|-0h2-4h5h7-5h7h9-----------------2---9---------------9---|
|-----------------------------------7-------------------10|
|0--------------------------------------------------------|
                                    ' ' ' '         ' ' ' 
|-------------------------------14p11~-------------------|
|-----------------------10h12h14------14p11---------13br~|
|-----------------5h7h9~-------------------13~---12------|
|0---------2~4h5h7----------------------------14---------|
|--3-2-0-------------------------------------------------|
|--------3-----------------------------------------------|

|------------------------------------16/18-------18/19----|
|------------------15----15-19-15-19-------17~17-------16~|
|---------16----16----16----------------------------------|
|17-14-17----17-------------------------------------------|
|---------------------------------------------------------|
|---------------------------------------------------------|
                                  
|18-19-18-16-14----------------------------15/17-13-------|
|---------------13-14/16--------------15~13---------13/16~|
|------------------------13~-14-17~-16--------------------|
|---------------------------------------------------------|
|---------------------------------------------------------|
|---------------------------------------------------------|

8va....................................................
|---------17-19-20-19-17-------------------------------|
|17-18-20----------------20-18-17----------------------|
|---------------------------------20-18-17-------------|
|------------------------------------------20-19-17-19~|
|------------------------------------------------------|
|------------------------------------------------------|

riff 9 (listen to get when each guitar is played)
|---------------------------------------------------------|
|---------------------------------------------------------|
|-----1p0-1p0------4p3-4p3------3----3---3h4p3---3--------|
|-----2p1-2p1------5p4-5p4---------------------5---5-4-2--|
|--------------------------------------------------------5|
|0000---------0000---------0000---0----0------------------|

played under this is riff 10
E G B C# , then, on the second time = E D B G

riff 11 (under this is E, G#, E, highEb)
high e |19br-16br--------16br------------19br-16br------|
     b |----------17br~-------17br-----------------17br~|
     g |---------------------------16br~----------------|

riff 12              riff 13             
g|----------------| g|--------4\3-3p2-| 
d|--------4\3-3p2-| d|2-3-4-5-2\1-1/2-| 
a|2-3-4-5-2\1-1/2-| a|0-1-2-3---------|
e|0-1-2-3---------| e|----------------|

riff 14
|-----444444------111111|
|333333-----222222------|

riff 15 (1st under solo2) trem pick
a|------------------------111---111---------444444|
e|000000000000000000000000---000---000333333------|

riff 16 (2nd under solo2 & last) trem pick
a|------------------------444444444444111111------|
e|000000000000000000000000------------------333333|

riff 16 (3rd under solo 2) trem pick
a|------------------------------------111111444444|
e|000000000000000000000000333333333333------------|

solo 2
|15-14-12----------17-15-14----------19-17-15-------------|
|---------15-14-12----------17-15-14----------19-17-15----|
|------------------------------------------------------16~|
|---------------------------------------------------------|
|---------------------------------------------------------|
|---------------------------------------------------------|
                            8va..........................
|--------------------------------------------------------|
|12-13-13br-12h13-12-------------------------------------|
|--------------------------------------------------------|
|--------------------14-14~----------14-16-14----14-16-17|
|---------------------------14-16-17----------17---------|
|--------------------------------------------------------|
.........................................................
|--------------------------------------------------------|
|---------------------15-17-15----15-18-15----15-17-15---|
|14-16-14----14-16-17----------17----------17----------17|
|---------17---------------------------------------------|
|--------------------------------------------------------|
|--------------------------------------------------------|
...............
|---------------18br-18-17-15-17-15h17p15---------|
|15-18-15----15---------------------------17b-17~-|
|---------17--------------------------------------|
|-------------------------------------------------|
|-------------------------------------------------|
|-------------------------------------------------|

e|12h15t19p15p12h15t19p15p12h15t19p15p12h15t19p15p12h15|

e|t20p15p12h15t20p15p12h15t20p15p12h1520p15p12h15|

e|t22p15p12h15t22p15p12h15t22p15p12h15t22p15p12h15|

|14-15-14h15p14p12-14~----------------------------|
|--------------------------7-8----7-8-10b~-8h10p8-|
|-----------------------/9~----9~-----------------|
|-------------------------------------------------|
|-------------------------------------------------|
|-------------------------------------------------|

|----------------------17b~-|
|/12h15p12----12-15p12------|
|----------14---------------|
|---------------------------|
|---------------------------|
|---------------------------|
            

comments powered by Disqus
↑ Back to top | Carcass Tabs for Carnal Forge. Lyrics for acoustic guitar and electric guitar. Tablatures and chords are parodies/interpretations of the original songs. You may use it for private study, scholarship, research or language learning purposes only