>
 >
Blind Bleeding The Blind

Blind Bleeding The Blind Guitar Tabs

Carcass - Blind Bleeding The Blind chords, tabs, tablatures, lyrics

Guitar lessons | Add/correct | Request | Top 50 tabs Artists:  A B C D E F G H I J K L M N O P Q R S T U V W X Y Z 0-9

Blind Bleeding The Blind Guitar Tabs – Carcass

CD, Sheet music, Poster

Do you like Blind Bleeding The Blind? Share with your friends now
TabsTabs v2
Tune Gtr to B (each string 2.5 steps down)

Riff A.1
|-------------------------------------|---------------------------------|
|-------------------------------------|---------------------------------|
|-------------------------------------|---------------------------------|GTRS
|----------------------------5--------|---------------------------------|1&2
|-------------------5-----------------|-0-----0-----0---0-----0-----0---|
|-3-333333-6-333333---333333---333333-|---222---222---2---222---222---2-|
    ......   ......   ......   ......     ...   ...       ...   ...

|-------------------------------------|-----------------------------------|
|-------------------------------------|-----------------------------------|
|-------------------------------------|-----------------------------------|GTRS
|----------------------------5--------|-----------------------------------|1&2
|-------------------5-----------------|/7-----7-----7---8-----8/10-----10-|
|-3-333333-6-333333---333333---333333-|---555---555---5---666------888----|
    ......   ......   ......   ......     ...   ...   .   ...      ...

Riff A.2
|-------------------------------------|---------------------------------|
|-------------------------------------|---------------------------------|
|-------------------------------------|---------------------------------|GTRS
|----------------------------5--------|---------------------------------|1&2
|-------------------5-----------------|-0-----0-----0---1-----1-----1---|
|-3-333333-6-333333---333333---333333-|---222---222---2---222---222---2-|
    ......   ......   ......   ......     ...   ...       ...   ...

|-------------------------------------|---------------------------------|
|-------------------------------------|---------------------------------|
|-------------------------------------|---------------------------------|GTRS
|----------------------------5--------|---------------------------------|1&2
|-------------------5-----------------|/7-----7-----7---8-----8--/10----|
|-3-333333-6-333333---333333---333333-|---555---555---5---666----/8-----|
    ......   ......   ......   ......     ...   ...   .   ...

Riff B.1
|---------------------------------|---------------------------------|
|---------------------------------|---------------------------------|
|-----7---------------------------|-----------------5---------------|GTRS
|-------8-5-------5/6-3-------6---|-----7/8-5---------6-3---6-------|1&2
|---5-------5---3-------3---4-----|---5-------5---3-------3---4-----|
|-3-----------1-----------2-------|-3-----------1---------------2---|


Riff C (leads are played over this)
|--------------------|-----------------------|--------------------|
|--------------------|-----------------------|--------------------|
|--------------------|-----------------------|--------------------|
|--------------------|-----------------------|--------------------|
|-55x---33x---4--55x-|-4--55x---33x---4--55x-|-55x---33x---4--55x-|
|-33x---11x---2--33x-|-2--33x---11x---2--33x-|-33x---11x---2--33x-|


|---------------------------|
|---------------------------|
|---------------------------|
|--------------------*------|
|-4--55x---33x---4---5------|
|-2--33x---11x---2---3------|

* let ring

Leads

Amott
|------6------------------------|
|-6fb----6fb--6-4-3h4p3---3~----|
|-----------------------5-------|
|-------------------------------|
|-------------------------------|
|-------------------------------|

Steer (this is not accurate)
|-6p3---3---------------------------------------|
|-----6---6p3h5p3-------------------------------|
|-----------------5p3h5p3-----------------------|
|-------------------------5p3h5p3---------7~~---|
|---------------------------------5p3h5p3-*-----|
|-----------------------------------------------|
			    		  ph
* vibrate one whole step

Amott
|-/15h18p15h18p15h18p15--15h18p15--15h18p15-20fb~----|
|----------------------18--------18------------------|
|----------------------------------------------------|
|----------------------------------------------------|
|----------------------------------------------------|
|----------------------------------------------------|

Steer
|-18fb----------------15--17--18--17-1514--h15p14----14----------------------|
|--------18fb----18fb-----------------------------16----16-15--13------------|
|------------------------------------------------------------------15-14~----|
|----------------------------------------------------------------------------|
|----------------------------------------------------------------------------|
|----------------------------------------------------------------------------|

Riff D
|----------------------------|-------------------------- this is probably|
|----------------------------|---------------------------wrong-----------|
|----------------------------|-------------------------------------------|GTR 1
|------7------8-------3------|------7------8-----------------------3h5h7-|
|-5----5-6----6--3----1-4----|-5----5-6----6--3333-8--6-------3h5h7------|
|-3------4-------1------2----|-3------4-------1111-6--4--3h5h7-----------|
|			     |		      ....			 |
|----------------------------|-------------------------------------------|
|----------------------------|-------------------------------------------|
|----------------------------|-------------------------------------------|GTR 2
|------7------8-------3------|------7------8-----------------------3h5h7-|
|-5----5-6----6--3----1-4----|-5----5-6----6--3333-8--6-------3h5h7------|
|-3------4-------1------2----|-3------4-------1111-6--4--3h5h7-----------|
					      ....

|----------------------------|----------------------------|----------------|
|----------------------------|----------------------------|----------------|
|----------------------------|----------------------------|----------------|GTR 1
|------7------8-------3------|------7------8--------------|----------3h5h7-|
|-5----5-6----6--3----1-4----|-5----5-6----6--3333-8--6x--|------3h5h7-----|
|-3------4-------1------2----|-3------4-------1111-6--4x--|-3h5h7----------|
|			     |		      ....	  |		   |
|----------------------------|----------------------------|----------------|
|----------------------------|----------------------------|----------------|
|----------------------------|----------------------------|----------------|GTR 2
|------7------8-------3------|------7------8--------------|----------------|
|-5----5-6----6--3----1-4----|-5----5-6----6--3333-8--6x--|----------------|
|-3------4-------1------2----|-3------4-------1111-6--4x--|----------------|
					      ....

Riff C
Riff D

Riff E
|--------------|-----------|--------------|-----------|
|--------------|-----------|--------------|-----------|
|--------------|-----------|--------------|-----------|GTRS
|----------5---|-----------|----------5---|-----------|1&2
|------5-------|-----------|------5-------|-7--8--10--|
|-3363---3---3-|-543543-6--|-3363---3---3-|-5--6--8---|
  .... . . . .   ......      .... . . . .

|--------------|-----------|--------------|------------|
|--------------|-----------|--------------|------------|
|--------------|-----------|--------------|------------|GTRS
|----------5---|-----------|----------5---|------------|1&2
|------5-------|-----------|------5-------|-7---8------|
|-3363---3---3-|-543543-6--|-3363---3---3-|--??--??-8--|
  .... . . . .   ......      .... . . . .

Riff A.1
Riff A.2
Riff B.1 (2 times)
Riff C
Riff D
Riff E
Riff A.1
Riff A.2

Riff F
|----------------------------------------------------------------------|
|----------------------------------------------------------------------|
|----------------------------------------------------------------------|GTR 1
|----------------------------5----------------------------------5------|
|-------------------5----------------------------------5---------------|
|-3-333333-6-333333---333333---331--/3-333333-6-333333---333333---331--|
    ......   ......   ......   ..      ......   ......   ......   ..

Repeat Riff F

Leads w/Riff F (2 times)
	Riff G

Riff G
|----------------------------------------------------------------------|
|----------------------------------------------------------------------|
|----------------------------------------------------------------------|
|----------------------------7----------------------------------7------|
|-------------------7----------------------------------7---------------|
|-5-555555-8-555555---555555---553--/5-555555-8-555555---555555---553--|
    ......   ......   .....    ..      ......   ......   ......   ..

|------------------------------------------------------------------|
|------------------------------------------------------------------|
|------------------------------------------------------------------|
|----------------------------7----------------------------------7--|
|-------------------7----------------------------------7-----------|
|/5-555555-8-555555---555555---553--/5-555555-8-555555---555555----|
    ......   ......   ......   ..      ......   ......   ......

Riff H
|---------------------------------|---------------------------------|
|---------------------------------|---------------------------------|
|---------------------------------|---------------------------------|
|-------------5-------------------|-------------5-------------------|
|---------555-------------555-3---|---------555-------------555-3---|
|-333-666---------333-666-----1---|-333-666---------333-666-----1---|
  ... ... ...     ... ... ...       ... ... ...     ... ... ...

Repeat Riff H

Riff I
|-------------------|-----------5-----4--|
|-------------------|--------------------|
|-------------------|-----4---5-----4----|
|-------------------|---5----------------|
|-3-4-3--3-4-3--3-4-|-------3-----4------|
|-1-2-1--1-2-1--1-2-|-3------------------|
  .      .      .

Riff A.1
Riff A.2
Riff B.1 (2 times)

Riff B.2
|---------------------------------|---------------------------------|
|---------------------------------|---------------------------------|
|-----7---------------------------|-----------------5---------------|GTR 1
|-------8-5-------5/6-3-------6---|-----7/8-5---------6-3---6-------|
|---5-------5---3-------3---4-----|---5-------5---3-------3---4-----|
|-3-----------1-----------2-------|-3-----------1---------------2---|
|				  |				    |
|---------------------------------|---------------------------------|
|---------------------------------|---------------------------------|
|-----harmony???------------------|---------------------------------|GTR 2
|---------------------------------|---------------------------------|
|---------------------------------|---------------------------------|
|---------------------------------|---------------------------------|





Comments


Popular Carcass tabs & chords
Embodiment Bass Tabs
Black Star Drum Tabs
Arbeit Macht Fleisch Tabs
Death Certificate 1 Tabs
Embryonic Necropsy And Devourment Tabs
Forensic Clinicism Tabs
No Love Lost Tabs
This Mortal Coil 1 Tabs
Tomorrow Belongs To Nobody Tabs
Tools Of The Trade (Solo) Tabs


Song lyrics



↑ Back to top | Tablatures and chords are parodies/interpretations of the original songs. You may use it for private study, scholarship, research or language learning purposes only
© 2014 AZChords.com Contact us | Privacy policy | DMCA | Add/correct tabs | Request tabs | Top 50 tabs