>
 >
Arbeit Macht Fleisch 1

Arbeit Macht Fleisch 1 Guitar Tabs

Carcass - Arbeit Macht Fleisch 1 chords, tabs, tablatures, lyrics

Guitar lessons | Add/correct | Request | Top 50 tabs Artists:  A B C D E F G H I J K L M N O P Q R S T U V W X Y Z 0-9

Arbeit Macht Fleisch 1 Guitar Tabs – Carcass

CD, Sheet music, Poster

Do you like Arbeit Macht Fleisch 1? Share with your friends now
TabsTabs v2
CARCASS - ARBEIT MACHT FLEISCH
(Heartwork, 1994)

Key
= after note = vibrato
^ after note = heavy vibrato 
\ = slide down
/ = slide up
+ = tap
h = hammer
p = pull
n = natural harmonic
s = pinching harmonic (squeal)
* = tremolo pick
t = trill
b = bend

n number above the tab = play the first part then the first finishing part
			 play the first part a second time and then play the second finishing part
			 etc.

Tune Down 2 1/2 Steps

Riff 1

B  -------------------------
F# -------------------------
D  -------------------------
A  -5--------5--------57----
E  -5--------5--------57----
B  -30-00-00-30-00-00-35-00-

Riff 2

B  --------------------
F# --------------------
D  --------------------
A  -2-------------6--3-
E  -2----5h8p5----6--3-
B  -0-00-------00-4--1-

Riff 2A

B  ----------------------------------------------------------------------------------
F# ----------------------------------------------------------------------------------
D  ----------------------5----2h5-p2----8--5----------------------5-55-55-55-55-8--5-
A  -2---------------6--6-5----------4---8--5-2---------------6--6-5-55-55-55-55-8--5-
E  -2----5h8-p5-----6--6-3-33-----------6--3-2----5h8-p5-----6--6-3-33-33-33-33-6--3-
B  -0-00-------6-00-4--4--------------0------0-00-------6-00-4--4--------------------

Riff 2B

B  -------------------------------------------
F# -------------------------------------------
D  ----------------------5----2h5-p2-----7--8-
A  -2---------------6--6-5----------4----7--8-
E  -2----5h8-p5-----6--6-3-33------------5--6-
B  -0-00-------6-00-4--4--------------00------

Riff 3

B  ----------------------------------------------------------------------------------------
F# ----------------------------------------------------------------------------------------
D  ----------------------------------------------------------------------------------------
A  ----------------------------------------------------------------------------------------
E  -7-------7-----------5----------------------7-------8-------------------------------5-6-
B  ---00-00---00-00-6-7---66-66-66-66-66-66-66---55-55---44-44-44-44-44-44-44-44-44-44-----

Riff 4

B  -------------------------------------------------------------------7---------------
F# -------------------------------------------------------------7---7---7---7-----7---
D  -------------------------------------------------------9-7-9---9-----------9-----9-
A  -4--------5--------7--------9--------6--------8----0-7-----------------7-----7-----
E  -4--------5--------7--------9--------6--------8------------------------------------
B  -2--------3--------5--------7--------4--------6------------------------------------

Riff 5

B  ----------------------------------------------------------------------------
F# ----------------------------------------------------------------------------
D  ----------------------------------------------------------------------------
A  -----9-10-7-9-7-5-----9-10-------------9-10-7-9-7-5-------------------------
E  -----7-8 -5-7-5-3-----7-8 -8-9-8-6-----7-8 -5-7-5-3-22-22-11-11-------------
B  -0-0-------------0-0-------6-7-6-4-0-0-------------------------22-22-11-11--

Riff 6

B  -------------------------------------------------
F# -------------------------------------------------
D  -------------------------------------------------
A  -5--------5--------50----87-------87-------87----
E  -5--------5--------50----87-------87-------87----
B  -30-00-00-30-00-00-30-00-65-55-55-65-55-55-65-55-

Riff 7

B  ---------------------------------------------------------------0---------0---
F# -------------------------3---------3-----------------------3---------3-------
D  -------4--------3----0-----0---0-----0-------4--------3----------0---------0-
A  -------4--------3--2---2-----0---0-----------4--------3--2---2-----0---0-----
E  -22-22-2--11-11-1----------------------22-22-2--11-11-1----------------------
B  -----------------------------------------------------------------------------

Riff 7A

B  ---------------------------------------------------------
F# -------------------------3---------3---------------------
D  -------4--------3----0-----0---0-----0-------4--------3--
A  -------4--------3--2---2-----0---0-----------4--------3--
E  -22-22-2--11-11-1----------------------22-22-2--11-11-1--
B  ---------------------------------------------------------

Order

Riff 1 x 1
Riff 2 x 8
Riff 2A x 1
Riff 2B x 1
Riff 2 x 8
Riff 2A x 1
Riff 2B x 1
Riff 3 x 4
Riff 4 x 1
Riff 5 x 2
Riff 3 x 4
Riff 4 x 1
Riff 5 x 2
Riff 1 x 1
Riff 2 x 12
Riff 2A x 1
Riff 2B x 1
Riff 3 x 4
Riff 4 x 1
Riff 5 x 4
Riff 6 x 4
Riff 7 x 1
Riff 6 x 4
Riff 7 x 1
Riff 7A x 1
Riff 1 x 1





Comments


Popular Carcass tabs & chords
Heartwork Bass Tabs
Black Star Drum Tabs
Child's Play Tabs
Corporeal Jigsore Quandary Tabs
Doctrinal Expletives Tabs
Embodiment 1 Tabs
Pedegree Butchery 1 Tabs
Room 101 Tabs
Swarming Vulgar Mass Of Infected Virulency Tabs
Symposium Of Sickness 1 Tabs


Song lyrics



↑ Back to top | Tablatures and chords are parodies/interpretations of the original songs. You may use it for private study, scholarship, research or language learning purposes only
© 2014 AZChords.com Contact us | Privacy policy | DMCA | Add/correct tabs | Request tabs | Top 50 tabs