» » »

Capdown, Ska Wars Bass tabs (ver.1)

Artists:  A B C D E F G H I J K L M N O P Q R S T U V W X Y Z # 

Ska Wars Bass tabs (ver.1)

Capdown Tabs
 Rating:
4/5 (4 votes)
Ska Wars  lessons Tabs too difficult? Try these video lessons and learn fast
1
                (2)
the real tabs unlike the rest. check them out
Intro and riff 1:
G|-------------------------------|
D|-------------------------------|
A|-------------------------------|
E|--23---------------------------|

Verse 1:
G|-------------------------------|
D|---6------6---------------------|
A|----6h9---------6/7------------|
E|---------------7---7-----------|

Verse 2
G|-------------------------------|
D|---6-------6-------------------|
A|----6--9----------6-7----------|
E|----------------7-----7--------|

Chorus 1:
G|-------------------------------|
D|-------------------------------|
A|--444-2-5555-------------------|
E|------------------7-7-76544444-|

Riff 2:
G|-------------------------------|
D|-------------------------------|
A|-------------------------------|
E|--44-44-44---------------------|

Riff 3:
G|-------------------------------|
D|-------------------------------|
A|--6666666666666666-------------|
E|-------------------------------|

Chorus 2:
G|---------------------------------------------|
D|---------------------------------------------|
A|7777-----------------------------------------|
E|-----7777-44444444---------------------------|

Verse 3:
G|------------------------------------|
D|---6------6-------------6------6----|
A|----6h9---------5/6-----------------|
E|---------------6---6--4---4-4---4---|

Outro:
G|-----------------------------------------|
D|-----------------------------------------|
A|--5-3-0----------------------------------|
E|----------2-3-4-\-0----------------------|

Your gunna have to work out how many times u play each of these but 
This is briefly what to do:

Intro
Verse 1
Riff 1
Verse 2
Riff 1
Verse 2
Riff 1
Chorus 1
Riff 2
Riff 1
Verse 2
Riff 1 
Verse 2
Riff 1
Chorus 1
riff 3
Chorus 2
Riff 1
Verse 3
Chorus 1
riff 3
Chorus 2
Riff 1
Verse 1
outro
            
Submit corrections

comments powered by Disqus
↑ Back to top | Capdown Bass for Ska Wars. Lyrics for acoustic guitar and electric guitar. 1 Tablatures and chords are parodies/interpretations of the original songs. You may use it for private study, scholarship, research or language learning purposes only