» » »

Capdown, Ska Wars Tabs (ver.1)

Artists:  A B C D E F G H I J K L M N O P Q R S T U V W X Y Z # 

Ska Wars Tabs (ver.1)

Capdown Tabs
 Rating:
4.2/5 (5 votes)
Ska Wars lessons Tabs too difficult? Try these video lessons and learn fast
1
                -----------------------------------------------------------------------------
                             SKA WARS- Capdown
-----------------------------------------------------------------------------

Tuning:EADGBe
 Main riff...
e|--4-4-4-4--7-7-7-7--4-4-4-4--7-7-7-7--4-4-4-4--7-7-7-7--4-4-4-4--7-7-7-7--|
B|--4-4-4-4--7-7-7-7--4-4-4-4--7-7-7-7--4-4-4-4--7-7-7-7--4-4-4-4--7-7-7-7--|
G|--5-5-5-5--8-8-8-8--5-5-5-5--8-8-8-8--5-5-5-5--8-8-8-8--5-5-5-5--8-8-8-8--|
D|--6-6-6-6--9-9-9-9--6-6-6-6--9-9-9-9--6-6-6-6--9-9-9-9--6-6-6-6--9-9-9-9--|
A|--x-x-x-x--x-x-x-x--x-x-x-x--x-x-x-x--x-x-x-x--x-x-x-x--x-x-x-x--x-x-x-x--|
E|--x-x-x-x--x-x-x-x--x-x-x-x--x-x-x-x--x-x-x-x--x-x-x-x--x-x-x-x--x-x-x-x--|

e|--4-4-4-4--7-7-7-7--4-4-4-4--7-7-7-7--4-4-4-4--7-7-7-7--------------------|
B|--4-4-4-4--7-7-7-7--4-4-4-4--7-7-7-7--4-4-4-4--7-7-7-7--------------------|
G|--5-5-5-5--8-8-8-8--5-5-5-5--8-8-8-8--5-5-5-5--8-8-8-8--------------------|
D|--6-6-6-6--9-9-9-9--6-6-6-6--9-9-9-9--6-6-6-6--9-9-9-9--------------------|
A|--x-x-x-x--x-x-x-x--x-x-x-x--x-x-x-x--x-x-x-x--x-x-x-x--------------------|
E|--x-x-x-x--x-x-x-x--x-x-x-x--x-x-x-x--x-x-x-x--x-x-x-x--------------------|
 distorted bit... 
e|---------------------------|
B|---------------------------|
G|--4-4-4-4-4--5-5-5-5-5-5---|
D|--4-4-4-4-4--5-5-5-5-5-5---|
A|--2-2-2-2-2--3-3-3-3-3-3---|
E|---------------------------|
 non- distorted...
e|--4-4-4-4--7-7-7-7--4-4-4-4--7-7-7-7--4-4-4-4--7-7-7-7-------------|
B|--4-4-4-4--7-7-7-7--4-4-4-4--7-7-7-7--4-4-4-4--7-7-7-7-------------|
G|--5-5-5-5--8-8-8-8--5-5-5-5--8-8-8-8--5-5-5-5--8-8-8-8-------------|
D|--6-6-6-6--9-9-9-9--6-6-6-6--9-9-9-9--6-6-6-6--9-9-9-9-------------|
A|--x-x-x-x--x-x-x-x--x-x-x-x--x-x-x-x--x-x-x-x--x-x-x-x-------------|
E|--x-x-x-x--x-x-x-x--x-x-x-x--x-x-x-x--x-x-x-x--x-x-x-x-------------|
 drum fill...
e|-----------|
B|-----------|
G|--4---5----|
D|--4---5----|
A|--2---3----|
E|-----------|
 then back to...
e|--4-4-4-4--7-7-7-7--4-4-4-4--7-7-7-7--4-4-4-4--7-7-7-7--4-4-4-4--7-7-7-7--|
B|--4-4-4-4--7-7-7-7--4-4-4-4--7-7-7-7--4-4-4-4--7-7-7-7--4-4-4-4--7-7-7-7--|
G|--5-5-5-5--8-8-8-8--5-5-5-5--8-8-8-8--5-5-5-5--8-8-8-8--5-5-5-5--8-8-8-8--|
D|--6-6-6-6--9-9-9-9--6-6-6-6--9-9-9-9--6-6-6-6--9-9-9-9--6-6-6-6--9-9-9-9--|
A|--x-x-x-x--x-x-x-x--x-x-x-x--x-x-x-x--x-x-x-x--x-x-x-x--x-x-x-x--x-x-x-x--|
E|--x-x-x-x--x-x-x-x--x-x-x-x--x-x-x-x--x-x-x-x--x-x-x-x--x-x-x-x--x-x-x-x--|

e|--4-4-4-4--7-7-7-7--4-4-4-4--7-7-7-7--4-4-4-4--7-7-7-7--------------------|
B|--4-4-4-4--7-7-7-7--4-4-4-4--7-7-7-7--4-4-4-4--7-7-7-7--------------------|
G|--5-5-5-5--8-8-8-8--5-5-5-5--8-8-8-8--5-5-5-5--8-8-8-8--------------------|
D|--6-6-6-6--9-9-9-9--6-6-6-6--9-9-9-9--6-6-6-6--9-9-9-9--------------------|
A|--x-x-x-x--x-x-x-x--x-x-x-x--x-x-x-x--x-x-x-x--x-x-x-x--------------------|
E|--x-x-x-x--x-x-x-x--x-x-x-x--x-x-x-x--x-x-x-x--x-x-x-x--------------------|
 distort...
e|-------------------------------|
B|-------------------------------|
G|--4-4-4-4-4---5-5-5-5-5-5------|
D|--4-4-4-4-4---5-5-5-5-5-5------|
A|--2-2-2-2-2---3-3-3-3-3-3------|
E|-------------------------------|

e|--------------------------------------------------------------------------|
B|--------------------------------------------------------------------------|
G|--6-6-6-4-7-7-7-7------------------6-6-6-4-7-7-7-7------------------------|
D|--6-6-6-4-7-7-7-7-9-9-9-9-6-6-6-6--6-6-6-4-7-7-7-7-9-9-9-9-6-6-6-6--------|
A|--4-4-4-2-5-5-5-5-9-9-9-9-6-6-6-6--4-4-4-2-5-5-5-5-9-9-9-9-6-6-6-6--------|
E|------------------7-7-7-7-4-4-4-4------------------7-7-7-7-4-4-4-4--------|

e|--------------------------------------------------------------------------|
B|--------------------------------------------------------------------------|
G|--6-6-6-4-7-7-7-7------------------6-6-6-4-7-7-7-7--6-6---6-6---6-6-------|
D|--6-6-6-4-7-7-7-7-9-9-9-9-6-6-6-6--6-6-6-4-7-7-7-7--6-6---6-6---6-6-4-5---|
A|--4-4-4-2-5-5-5-5-9-9-9-9-6-6-6-6--4-4-4-2-5-5-5-5--4-4---4-4---4-4-4-5---|
E|------------------7-7-7-7-4-4-4-4-----------------------------------2-3---|
 then back to...
e|--4-4-4-4--7-7-7-7--4-4-4-4--7-7-7-7--4-4-4-4--7-7-7-7--------------------|
B|--4-4-4-4--7-7-7-7--4-4-4-4--7-7-7-7--4-4-4-4--7-7-7-7--------------------|
G|--5-5-5-5--8-8-8-8--5-5-5-5--8-8-8-8--5-5-5-5--8-8-8-8--------------------|
D|--6-6-6-6--9-9-9-9--6-6-6-6--9-9-9-9--6-6-6-6--9-9-9-9--------------------|
A|--x-x-x-x--x-x-x-x--x-x-x-x--x-x-x-x--x-x-x-x--x-x-x-x--------------------|
E|--x-x-x-x--x-x-x-x--x-x-x-x--x-x-x-x--x-x-x-x--x-x-x-x--------------------|
 drum fill...
e|-----------------------------------|
B|-----------------------------------|
G|--4-4-4-4-4---5-5-5-5-5-5----------|
D|--4-4-4-4-4---5-5-5-5-5-5----------|
A|--2-2-2-2-2---3-3-3-3-3-3----------|
E|-----------------------------------|
 back to...
e|--4-4-4-4--7-7-7-7--4-4-4-4--7-7-7-7--4-4-4-4--7-7-7-7--4-4-4-4--7-7-7-7--|
B|--4-4-4-4--7-7-7-7--4-4-4-4--7-7-7-7--4-4-4-4--7-7-7-7--4-4-4-4--7-7-7-7--|
G|--5-5-5-5--8-8-8-8--5-5-5-5--8-8-8-8--5-5-5-5--8-8-8-8--5-5-5-5--8-8-8-8--|
D|--6-6-6-6--9-9-9-9--6-6-6-6--9-9-9-9--6-6-6-6--9-9-9-9--6-6-6-6--9-9-9-9--|
A|--x-x-x-x--x-x-x-x--x-x-x-x--x-x-x-x--x-x-x-x--x-x-x-x--x-x-x-x--x-x-x-x--|
E|--x-x-x-x--x-x-x-x--x-x-x-x--x-x-x-x--x-x-x-x--x-x-x-x--x-x-x-x--x-x-x-x--|

e|--4-4-4-4--7-7-7-7--4-4-4-4--7-7-7-7--4-4-4-4--7-7-7-7--------------------|
B|--4-4-4-4--7-7-7-7--4-4-4-4--7-7-7-7--4-4-4-4--7-7-7-7--------------------|
G|--5-5-5-5--8-8-8-8--5-5-5-5--8-8-8-8--5-5-5-5--8-8-8-8--------------------|
D|--6-6-6-6--9-9-9-9--6-6-6-6--9-9-9-9--6-6-6-6--9-9-9-9--------------------|
A|--x-x-x-x--x-x-x-x--x-x-x-x--x-x-x-x--x-x-x-x--x-x-x-x--------------------|
E|--x-x-x-x--x-x-x-x--x-x-x-x--x-x-x-x--x-x-x-x--x-x-x-x--------------------|


 drum fill...
e|-----------------------------------|
B|-----------------------------------|
G|--4-4-4-4-4---5-5-5-5-5-5----------|
D|--4-4-4-4-4---5-5-5-5-5-5----------|
A|--2-2-2-2-2---3-3-3-3-3-3----------|
E|-----------------------------------|

 then back to...
e|--------------------------------------------------------------------------|
B|--------------------------------------------------------------------------|
G|--6-6-6-4-7-7-7-7------------------6-6-6-4-7-7-7-7------------------------|
D|--6-6-6-4-7-7-7-7-9-9-9-9-6-6-6-6--6-6-6-4-7-7-7-7-9-9-9-9-6-6-6-6--------|
A|--4-4-4-2-5-5-5-5-9-9-9-9-6-6-6-6--4-4-4-2-5-5-5-5-9-9-9-9-6-6-6-6--------|
E|------------------7-7-7-7-4-4-4-4------------------7-7-7-7-4-4-4-4--------|

e|--------------------------------------------------------------------------|
B|--------------------------------------------------------------------------|
G|--6-6-6-4-7-7-7-7------------------6-6-6-4-7-7-7-7-8-8-8-8-8-8-8-8--------|
D|--6-6-6-4-7-7-7-7-9-9-9-9-6-6-6-6--6-6-6-4-7-7-7-7-8-8-8-8-8-8-8-8--------|
A|--4-4-4-2-5-5-5-5-9-9-9-9-6-6-6-6--4-4-4-2-5-5-5-5-6-6-6-6-6-6-6-6--------|
E|------------------7-7-7-7-4-4-4-4-----------------------------------------|


e|--------------------------------------------------------------------------|
B|--------------------------------------------------------------------------|
G|--9-9-9-9--------------------------9-9-9-9--------------------------------|
D|--9-9-9-9-9-9-9-9-6-6-6-6-6-6-6-6--9-9-9-9-9-9-9-9-6-6-6-6-6-6-6-6--------|
A|--7-7-7-7-9-9-9-9-6-6-6-6-6-6-6-6--7-7-7-7-9-9-9-9-6-6-6-6-6-6-6-6--------|
E|----------7-7-7-7-4-4-4-4-4-4-4-4----------7-7-7-7-4-4-4-4-4-4-4-4--------|

e|--------------------------------------------------------------------------|
B|--------------------------------------------------------------------------|
G|--9-9-9-9--------------------------9-9-9-9---------8-8-8-8----------------|
D|--9-9-9-9-9-9-9-9-6-6-6-6-6-6-6-6--9-9-9-9-9-9-9-9-8-8-8-8---4--5---------|
A|--7-7-7-7-9-9-9-9-6-6-6-6-6-6-6-6--7-7-7-7-9-9-9-9-6-6-6-6---4--5---------|
E|----------7-7-7-7-4-4-4-4-4-4-4-4----------7-7-7-7-----------2--3---------|
 this is when theres a little bass solo, just play the chords from the main riff on & off.
 then its back to...
e|--------------------------------------------------------------------------|
B|--------------------------------------------------------------------------|
G|--6-6-6-4-7-7-7-7------------------6-6-6-4-7-7-7-7------------------------|
D|--6-6-6-4-7-7-7-7-9-9-9-9-6-6-6-6--6-6-6-4-7-7-7-7-9-9-9-9-6-6-6-6--------|
A|--4-4-4-2-5-5-5-5-9-9-9-9-6-6-6-6--4-4-4-2-5-5-5-5-9-9-9-9-6-6-6-6--------|
E|------------------7-7-7-7-4-4-4-4------------------7-7-7-7-4-4-4-4--------|

e|--------------------------------------------------------------------------|
B|--------------------------------------------------------------------------|
G|--6-6-6-4-7-7-7-7------------------6-6-6-4-7-7-7-7-8-8-8-8-8-8-8-8--------|
D|--6-6-6-4-7-7-7-7-9-9-9-9-6-6-6-6--6-6-6-4-7-7-7-7-8-8-8-8-8-8-8-8--------|
A|--4-4-4-2-5-5-5-5-9-9-9-9-6-6-6-6--4-4-4-2-5-5-5-5-6-6-6-6-6-6-6-6--------|
E|------------------7-7-7-7-4-4-4-4-----------------------------------------|

e|--------------------------------------------------------------------------|
B|--------------------------------------------------------------------------|
G|--9-9-9-9--------------------------9-9-9-9--------------------------------|
D|--9-9-9-9-9-9-9-9-6-6-6-6-6-6-6-6--9-9-9-9-9-9-9-9-6-6-6-6-6-6-6-6--------|
A|--7-7-7-7-9-9-9-9-6-6-6-6-6-6-6-6--7-7-7-7-9-9-9-9-6-6-6-6-6-6-6-6--------|
E|----------7-7-7-7-4-4-4-4-4-4-4-4----------7-7-7-7-4-4-4-4-4-4-4-4--------|

e|--------------------------------------------------------------------------|
B|--------------------------------------------------------------------------|
G|--9-9-9-9--------------------------9-9-9-9---------8-8-8-8----------------|
D|--9-9-9-9-9-9-9-9-6-6-6-6-6-6-6-6--9-9-9-9-9-9-9-9-8-8-8-8---4--5---------|
A|--7-7-7-7-9-9-9-9-6-6-6-6-6-6-6-6--7-7-7-7-9-9-9-9-6-6-6-6---4--5---------|
E|----------7-7-7-7-4-4-4-4-4-4-4-4----------7-7-7-7-----------2--3---------|

then play the main riff again, and then to finish...
e|-------------------------|
B|-------------------------|
G|-------------------------|
D|--4---5---6--------------|
A|--4---5---6--------------|
E|--2---3---4--------------|


| /  slide up
| \  slide down
| h  hammer-on
| p  pull-off
| ~  vibrato
| +  harmonic
| x  Mute note
=============================================================================
umm thats it. have fun- cause this is a great song!
Peace Out :)
            
Submit corrections

comments powered by Disqus
↑ Back to top | Capdown Tabs for Ska Wars. Lyrics for acoustic guitar and electric guitar. 1 Tablatures and chords are parodies/interpretations of the original songs. You may use it for private study, scholarship, research or language learning purposes only