» » »

When Death Replaces Life Bass tabs (ver.1)

Artists:  A B C D E F G H I J K L M N O P Q R S T U V W X Y Z # 

When Death Replaces Life Bass tabs (ver.1)

Cannibal Corpse
Rating:
0/5 (0 votes)

Hard to play? Try these video lessons and learn fast.
                Bb Eb Ab Db F


||o-----------------|-----------------o||-|
||------------------|------------------||-|
||------3---3---3---|-----4---4---4----||-|
||o-----------------|-----------------o||-|
||--1-2---2---2---2-|-2-1---1---1---1--||-|



|-----------------|----------|-----------------|------|
|-----------------|----------|-----------------|------|
|-----3---3---3---|----------|-----3---3---3---|-3----|
|-----------------|----------|-----------------|------|
|-1-2---2---2---2-|-1--------|-1-2---2---2---2-|------|



|-----------------|----------|-----------------|------|
|-----------------|----------|-----------------|------|
|-----3---3---3---|-3--------|-----3---3---3---|------|
|-----------------|----------|-----------------|------|
|-1-2---2---2---2-|----------|-1-2---2---2---2-|------|



||-----------------------||----|
||-----------------------||----|
||-----------------------||----|
||-----------------------------|
||------0-0-4-5S4-1(4)---||----|



||-------------------|----------------------------------------------------o||
||-------------------|-----------------------------------------------------||
||-------------------|-----------------------------------------------------||
||-------------------|-2-2-8-8-8-8-7-7-7-7-4-4-4-4-3-3-3-3----------------o||
||--0-0-5S4-5S4-1S4-|-0-0---------------------------------5-5-5-5-4-4-4-4-||



|-----------------------------------------------------------------|
|-----------------------------------------------------------------|
|-7-7-7-7-6-6-6-6-3-3-3-3-6-6-6-6-3-3-3-3-2-2-2-2-3-3-3-3-2-2-2-2-|
|-----------------------------------------------------------------|
|-----------------------------------------------------------------|



|-------------------------------------------------|
|-------------------------------------------------|
|-7-7-7-7-6-6-6-6-3-3-3-3-6-6-6-6-3-3-3-3-2-2-2-2-|
|-------------------------------------------------|
|-------------------------------------------------|


|-----------------|---------------------------------|
|-----------------|---------------------------------|
|-----------------|---------------------------------|
|-8-8-8-8-7-7-7-7-|-4-4-4-4-7-7-7-7-4-4-4-4-3-3-3-3-|
|-----------------|---------------------------------|

|---------------------------------|----|
|---------------------------------|----|
|---------------------------------|----|
|-4-4-4-4-3-3-3-3---------3-3-3-3-|----|
|-----------------5-5-5-5---------|----|

||o---------------------------------------------------------------|
||----------------------------------------------------------------|
||--------------------------------------------------------------5-|
||o-------------------------8---7---4---7---4---3---4---3---7---3-|
||--5-0-4-0-1-0-4-0-1-0-0-0---0---0---0---0---0---0---0---0-5-0---|


|-------------------------------------------------|
|-------------------------------------------------|
|-7-7-7-7-6-6-6-6-3-3-3-3-6-6-6-6-3-3-3-3-2-2-2-2-|
|-------------------------------------------------|
|-------------------------------------------------|


|-------------------------------------------------|
|-------------------------------------------------|
|-------------------------------------------------|
|-8-8-8-8-7-7-7-7-4-4-4-4-7-7-7-7-4-4-4-4-3-3-3-3-|
|-------------------------------------------------|


|---------------------------------o||-|
|----------------------------------||-|
|----------------------------------||-|
|-4-4-4-4-3-3-3-3---------3-3-3-3-o||-|
|-----------------5-5-5-5----------||-|
            
Hard to play? Try these video lessons and learn fast. | Correct




comments powered by Disqus
↑ Back to top | Tablatures and chords are parodies/interpretations of the original songs. You may use it for private study, scholarship, research or language learning purposes only