» » »

Cannibal Corpse, When Death Replaces Life Tabs (ver.2)

Artists:  A B C D E F G H I J K L M N O P Q R S T U V W X Y Z # 

When Death Replaces Life Tabs (ver.2)

Cannibal Corpse Tabs
 Rating:
4/5 (4 votes)
When Death Replaces Life lessons Tabs too difficult? Try these video lessons and learn fast
1
                    Cannibal Corpse - When Death Replaces Life

tp. : Tremlo Picking
pm. : Palm muted
  ^ : upstroke
  Tuning: Drop C low to high [CGCFAD]

 I figured it out on drop C its alot easier when u get the hang of it:)

    ~Intro part 1~[let ring] play 4 times
D|------------------------------------------------------------------------|
A|------------------------------------------------------------------------|
F|------------------------------------------------------------------------|
C|----------0-----0-----0--------------0-----0-----0----------------------|
G|-------5-----5-----5----------------6-----6-----6-----------------------|
C|--0-1------------------------1-1-0---------------------0----------------|
  ~Intro Part 2~[Let Ring] play 2 times
D|------------------------------------------------------------------------|
A|------------------------------------------------------------------------|
F|------------------------------------------------------------------------|
C|----------0-----0-----0-----0-------------------------------------------|
G|-------5-----5-----5--------0-----[let ring for few seconds]------------|
C|--0-1-----------------------0-------------------------------------------|

D|-----------------------------5------------------------------------------|
A|-----------------------------5------------------------------------------|
F|-----------------------------7-----[let ring for few seconds]-----------|
C|---------0-----0------0------7------------------------------------------|
G|------5-----5-----5-----------------------------------------------------|
C|--0-1-------------------------------------------------------------------|

  ~Verse~ play 3 times
D|------------------------------------------------------------------------|
A|---7-6------------------------------------------------------------------|
F|---6-5------------------------------------------------------------------|
C|---5-4-----0-0---3-4-3--0-0-0-------------------------------------------|
G|---6-5-----0-0---3-4-3--0-0-0-------------------------------------------|
C|-----------0-0---3-4-3--0-0-0-------------------------------------------|
 PM          . .
  ~~Then~~
D|------------------------------------------------------------------------|
A|-7--6-------------------------------------------------------------------|
F|-6--5-------------------------------------------------------------------|
C|-5--4--[let both ring for few seconds]----4-3-0-3-----------------------|
G|-6--5-------------------------------------4-3-0-3-----------------------|
C|------------------------------------------4-3-0-3-----------------------|

  ~Chorus~[palm mute the upstroke aswell]
D|------------------------------------------------------------------------|
A|------------------------------------------------------------------------|
F|------------------------------------------------------------------------|
C|-0--0-0----3-0-4-3-0-3--------------------------------------------------|
G|-0--0-0----3-0-4-3-0-3--------------------------------------------------|
C|-0--0-0----3-0-4-3-0-3--------------------------------------------------|
PM ^  . .
 ~then~
D|------------------------------------------------------------------------|
A|------------------------------------------------------------------------|
F|------------------------------------------------------------------------|
C|-0-0--------------------------------------------------------------------|
G|-0-0--------------------------------------------------------------------|
C|-0-0------12-11-8-7-5-3-------------------------------------------------|
PM . .    TP .  . . . . .

 ~Bridge#1~
D|---------------------------|--------------------------------------------|
A|---------------------------|--------------------------------------------|
F|---------------------------|--------------------------------------------|
C|---------------------------|--------------------------------------------|
G|---------------------------|--------------------------------------------|
C|--12-11-8-11-8-7-8-5-3-0---|-12-0-11-0-8-0-11-8-0-7-0-8-0-5-0-3-0-------|
TP  .   . .  . . . . . . .  PM .  .  . . . .  . . . . . . . . . . .

 ~Bridge#2~[make it seem like slides but really fast listen 2 song 4 help]
D|------------------------------------------------------------------------|
A|------------------------------------------------------------------------|
F|------------------------------------------------------------------------|
C|------------------------------------------------------------------------|
G|------------------------------------------------------------------------|
C|-0-3-5-7-8-11-12--------------------------------------------------------|
TP . . . . .  .  .

 ~Bridge#3~
D|------------------------------------------------------------------------|
A|------------------------------------------------------------------------|
F|---------------14-15----------16-17-------------------------------------|
C|------12-13-----------15-16---------------------------------------------|
G|------------------------------------------------------------------------|
C|--00--------------------------------------------------------------------|
TP      .   .     .  .   .  .    .   .
Structure:

Intro part 1
intro part 2
verse x3
chorus x4
verse x3
chorus x4
bridge#1 x2
bridge#2
bridge#1 x2
bridge#3 x3[not sure about]
solo[not tabbed]
1 half of intro part 1
verse x2
chorus x4
then end with the 1st part of verse

listen to the songs to help and this is my 1st tab on this site, i was on taborama, but
dont exist nomore i gess, damn copy write shyt! whoever did it, but i found a new place
learn and post tabbs on:) and i kno wat i tabbed for this songs mite not be excellent 
its wat did in my mind, so if plz rate and if u have corrections or comments  just email
thx and enjoy!:)
p.s. do not copywrite this, cuz if u do i will kill u if i find out grrr!!!
but if u do jus gimma credit:).....orelse!
            
Submit corrections

comments powered by Disqus
↑ Back to top | Cannibal Corpse Tabs for When Death Replaces Life. Lyrics for acoustic guitar and electric guitar. 1 Tablatures and chords are parodies/interpretations of the original songs. You may use it for private study, scholarship, research or language learning purposes only