» » »

Staring Through The Eyes Of The Dead Bass tabs (ver.1)

Artists:  A B C D E F G H I J K L M N O P Q R S T U V W X Y Z # 

Staring Through The Eyes Of The Dead Bass tabs (ver.1)

Cannibal Corpse
Rating:
0/5 (0 votes)

Hard to play? Try these video lessons and learn fast.
                1)  e ss e Q    Q         e ss e Q    Q    Q
+--------------------+--------------------------+
|9:------------------|12:-----------------------|
|8:------------------| 8:------------------6----|
+---0-00-0-6----3----+----0-00-0-6----3---------+

2)  e ss e e e e e e e      e ss e e e e e e e e e e 
+----------------------+-----------------------------+
|9:--------------------|12:--------------------------|
|8:--------------------| 8:--------------------6-9-6-|
+---0-00-0-6-9-6-3-6-3-+----0-00-0-6-9-6-3-6-3-------+

3)  e ss e s s s s s s s s s s s s      e ss e s s s s s s s s s s s s s s s s 
+----------------------------------+-------------------------------------------+
|9:--------------------------------|12:----------------------------------------|
|8:--------------------------------| 8:--------------------------------6h9p6h9p|
+---0-00-0-6h9p6h9p6h9p3h6p3h6p3h6p+----0-00-0-6h9p6h9p6h9p3h6p3h6p3h6p--------+

Well, you take your pick.  One or more of those three.  I'll write it in the first way, since it's easier to write out.


                    STARING THROUGH THE EYES OF THE DEAD


Medium tempo
     Q  q e |   e ss e Q    Q         e ss e Q    Q    Q         
+-----------+--------------------+--------------------------+
|6:---------|9:------------------|12:-----------------------|
|8:---------|8:------------------| 8:------------------6----|
+---/6--6-6-+---0-00-0-6----3----+----0-00-0-6----3---------+

    e ss e Q    Q         e ss e Q    Q    Q    Q
+--------------------+-------------------------------+
|9:------------------|15:----------------------------|
|8:------------------| 8:------------------6----5----|
+---0-00-0-6----3----+----0-00-0-6----3--------------+

    e ss e Q    Q         e ss e Q    Q    Q        e ss e Q    Q     
+--------------------+--------------------------+--------------------+
|9:------------------|12:-----------------------|9:------------------|
|8:------------------| 8:------------------6----|8:------------------| 
+---0-00-0-6----3----+----0-00-0-6----3---------+---0-00-0-6----3----+

     e ss e Q    Q    Q    Q         Q  q e 2|    ssssssssssssssssssssssss
+-------------------------------+------------+----------------------------+
|15:----------------------------|6:----------|12:-------------------------|
| 8:------------------6----5----|8:----------| 8:-------------------------|
+----0-00-0-6----3--------------+---/6--6-6--+----333333333333666666666666+

 ssssssssssss e e e e e e 3|ssssssssssssssssssssssss
+--------------------------+------------------------+
|--------------------------|------------------------|
|--------------------------|------------------------|
+333333333333-6-9-6-9-6-9--+333333333333666666666666+

 ssssssssssss e  e e  e e e      e ss e Q    Q         e ss e Q    Q    Q         
+----------------------------+--------------------+--------------------------+
|-------------8-11-8-11-8-11-|9:------------------|12:-----------------------|
|----------------------------|8:------------------| 8:------------------6----|
+333333333333----------------+---0-00-0-6----3----+----0-00-0-6----3---------+

    e ss e Q    Q         e ss e Q    Q    Q    Q
+--------------------+-------------------------------+
|9:------------------|15:----------------------------|
|8:------------------| 8:------------------6----5----|
+---0-00-0-6----3----+----0-00-0-6----3--------------+

    e ss e Q    Q         e ss e Q    Q    Q        e ss e Q    Q     
+--------------------+--------------------------+--------------------+
|9:------------------|12:-----------------------|9:------------------|
|8:------------------| 8:------------------6----|8:------------------| 
+---0-00-0-6----3----+----0-00-0-6----3---------+---0-00-0-6----3----+

     e ss e Q    Q    Q    Q         Q  q e  |    e e e e e e e e e e e e 7| 
+-------------------------------+------------+-----------------------------+
|15:----------------------------|6:----------|12:--------------------------|
| 8:------------------6----5----|8:----------| 8:-4-1---2-1---1------------|
+----0-00-0-6----3--------------+---/6--6-6--+--------0-----0---3-0-3-2-0--+

                 fast tempo         double time
    e e e e e e     e^e^e e^e^e q  |   eeeeeeee eeee e e q 8|eeeee e q
+---------------+------------------+-----------|------------+----------+
|6:-------------|3:-----R-----R----|4:---------|------------|----------|
|8:-4-2---2-1---|4:-1--------------|4:---------|3333-0h1-1--|----0h1-1-|
+-------0-----0-+-----3---3-2---6--+---00002333+------------+0000------+

 eeeee e q  eeeee e q  eeeeee q 3|eeeee e q  eeeee e q  eeeee e q
+----------+----------+----------+----------+----------+----------+
|----------|----------|----------|----------|----------|----------|
|----0h1-1-|----1h4-4-|441-------|----0h1-1-|----0h1-1-|----1h4-4-|
+0000------+0000------+---063-0--+0000------+0000------+0000------+

medium tempo
|   e e e e e e   e e e e e e   e e e e e e   e e e q  e 3| e e e e e e 
+---------------+-------------+-------------+-------------+-------------+
|6:-------------|-------------|-------------|-------------|-------------|
|8:-4-1---------|-4-1---------|-4-1---------|-4-1---7--7--|-4-1---------|
+-------0-6-3-0-+-----0-6-3-0-+-----0-6-3-0-+-----0-------+-----0-6-3-0-+

                                      fast tempo double time
  e e e e e e   e e e e e e     e e e     q q q    eeeeeeee eeee e e q 4|
+-------------+-------------+---------+---------+----------+------------+
|-------------|-------------|3:-------|3:-------|4:--------|------------|
|-4-1---------|-4-1---------|8:-4-1---|4:-7-7-\-|4:--------|3333-0h1-1--|
+-----0-6-3-0-+-----0-6-3-0-+-------0-+---------+--00002333+------------+

 eeeee e q  eeeee e q  eeeee e q  eeeeee q 3|eeeee e q  eeeee e q  eeeee e q
+----------+----------+----------+----------+----------+----------+----------+
|----------|----------|----------|----------|----------|----------|----------|
|----0h1-1-|----0h1-1-|----1h4-4-|441-------|----0h1-1-|----0h1-1-|----1h4-4-|
+0000------+0000------+0000------+---063-0--+0000------+0000------+0000------+

half-time, medium tempo
|   H   (H) (H)  Q 2| e e e e e e 8| e e e e e e   e e e e e e   e e e e e e 
+---6--+---+---+----+--------------+-------------+-------------+-------------+
|6:-6--|---|---|-3--|--------------|-------------|-------------|-------------|
|8:-4--|---|---|-1--|-4-1----------|-4-1---------|-4-1---------|-4-1---------|
+------+---+---+-1--+-----0-6-3-0--+-----0-6-3-0-+-----0-6-3-0-+-----0-6-3-0-+

  e e e q  e 3| e e e e e e   e e e e e e | e e e e e e
+-------------+-------------+-------------+-------------+
|-------------|-------------|-------------|-------------|
|-4-1---7--7--|-4-1---------|-4-1---------|-4-1---------|
+-----0-------+-----0-6-3-0-+-----0-6-3-0-+-----0-6-3-0-+

fast tempo         double time
    e^e^e e^e^e  q |  eeeeeeee eeeee e q 4|
+------------------+----------+-----------+
|3:-----R-----R----|4:--------|-----------|
|4:-1--------------|4:--------|33330h1-1--|
+-----3---3-2---/6-+--00002333+-----------+

 eeeee e q  eeeee e q  eeeee e q  eeeeee q 4|eeeeeeee eeeee e q 4|
+----------+----------+----------+----------+--------+-----------+
|----------|----------|----------|----------|--------|-----------|
|----0h1-1-|----0h1-1-|----1h4-4-|441-------|--------|33330h1-1--|
+0000------+0000------+0000------+---063-0--+00002333+-----------+

 eeq eeq  e e q eeee 4| w   (h) q
+--------+------------+----+------+
|--R---R-|------------|----|------|
|--------|0h1-1-------|-1--|------|
+63--32--+------0000--+----+----0-+


The letters above stand for the note values:
s=sixteenth                                     R=rest 
e=eighth                                        /=slide up, \=slide down
q=quarter                                       x^x^x=triplets
h=half                                          h=hammer-on, p=pull-off
w=whole                                         
capital letter means dotted note value
            
Hard to play? Try these video lessons and learn fast. | Correct




comments powered by Disqus
↑ Back to top | Tablatures and chords are parodies/interpretations of the original songs. You may use it for private study, scholarship, research or language learning purposes only