» » »

Cannibal Corpse, Split Wide Open Tabs (ver.1)

Artists:  A B C D E F G H I J K L M N O P Q R S T U V W X Y Z # 

Split Wide Open Tabs (ver.1)

Cannibal Corpse Tabs
Rating:
0/5 (0 votes)
Split Wide Open lessons Tabs too difficult? Try these video lessons and learn fast
                Riff 1
e|--------------|--------------|--------------|------------------
B|--------------|--------------|--------------|------------------
G|--------------|--------------|--------------|------------------
D|-----------3--|-----------3--|-----------3--|------------3-----
A|-----------1--|-----------1--|-----------1--|------------1-----
E|--0-0-3020----|--0-0-3020----|--0-0-3020----|--0-0-3020--------

Riff 1a
e|----------|----------|----------|----------|-------------------
B|----------|----------|----------|----------|-------------------
G|----------|----------|----------|----------|-------------------
D|-------3--|-------3--|-------3--|-------3--|-------------------
A|-------1--|-------1--|-------1--|-------1--|-------------------
E|--3020----|--3020----|--3020----|--3020----|-------------------

Riff 2
e|----------|-------------------|--------------------------------
B|----------|-------------------|--------------------------------
G|----------|----------444-333--|--------------------------------
D|-------3--|-------------------|--------------------------------
A|-------1--|-------------------|--------------------------------
E|--0000----|--003020-----------|--------------------------------

Verse riff
e|---------------------------------------------------------------
B|---------------------------------------------------------------
G|---------------------------------------------------------------
D|----------3----------------------------------------------------
A|--3-------1-----------2-2-1-1----------------------------------
E|--1-0-0-0---0-3-3-2-2------------------------------------------

Post verse figure
e|------------|------------|------------|------------|-----------
B|------------|------------|------------|------------|-----------
G|------------|------------|------------|------------|-----------
D|---------3--|---------3--|---------3--|---------3--|-----------
A|---------1--|---------1--|---------1--|---------1--|-----------
E|--0-0-00----|--0-0-00----|--0-0-00----|--0-0-00----|-----------

Riff 3
e|---------------------------------------------------------------
B|---------------------------------------------------------------
G|---------------------------------------------------------------
D|-------3-------------------------------------------------------
A|-------1-------5-4-3-------------------------------------------
E|--0-00---0-00--3-2-1-------------------------------------------

Riff 3A
e|---------------------------------------------------------------
B|---------------------------------------------------------------
G|---------------------------------------------------------------
D|-------3-------------------------------------------------------
A|-------1---------4/5\4-----------------------------------------
E|--0-00---0-2-2-2-2/3\2-----------------------------------------

Riff 4
e|---------------------------------------------------------------
B|---------------------------------------------------------------
G|---------------------------------------------------------------
D|--3----------3-------------------------------------------------
A|--1----------1-------------------------------------------------
E|----0-0-3020---0-0-0-0-0-0-------------------------------------

Riff 5
e|---------------------------------------------------------------
B|---------------------------------------------------------------
G|----------4---5-----------------4----444-333-------------------
D|----------2---3-----------------2------------------------------
A|--0-0-0-0---0----------0-0-0-0----0----------------------------
E|----------------0-1-2------------------------------------------

Riff 6(this riff ***ing rocks!)
Gtr. 1
e|---------------------------------------------------------------------------------------
B|---------------------------------------------------------------------------------------
G|---------------------------------------------------------------------------------------
D|---------------------------------------------------------------------------------------
A|---------------------------------------------------------------------------------------
E|--555555555555555-4-5-44444444-11111111-444444444444444-3-4-33333333-00000000----------

Gtr. 2
e|---------------------------------------------------------------------------------------
B|--555555555555555-4-5-44444444----------444444444444444-3-4-33333333-------------------
G|-------------------------------55555555------------------------------44444444----------
D|---------------------------------------------------------------------------------------
A|---------------------------------------------------------------------------------------
E|---------------------------------------------------------------------------------------

Riff 7
e|----------------------------|----------------------------------
B|----------------------------|----------------------------------
G|----------------------------|----------------------------------
D|----------------------------|----------------------------------
A|-------------------------3--|----------------------3-----------
E|--000000-4h5-3h4-2h3-1h2-1--|--0000000-3h4-2h3-1h2-1-----------

Riff 8 (play the last time without the open E's)
e|---------------------------------------------------------------
B|---------------------------------------------------------------
G|---------------------------------------------------------------
D|---------------------------------------------------------------
A|--4----4-3---3-2-----------------------------------------------
E|--2----2-1---1-0-0000000---------------------------------------
            
Submit corrections

comments powered by Disqus
↑ Back to top | Cannibal Corpse Tabs for Split Wide Open. Lyrics for acoustic guitar and electric guitar. Tablatures and chords are parodies/interpretations of the original songs. You may use it for private study, scholarship, research or language learning purposes only