» » »

Sentenced To Burn Tabs (ver.3)

Artists:  A B C D E F G H I J K L M N O P Q R S T U V W X Y Z # 

Sentenced To Burn Tabs (ver.3)

Cannibal Corpse
Rating:
0/5 (0 votes)

Hard to play? Try these video lessons and learn fast.
                Db|----------------|
Ab|----------------|
Db|3210321032103210|
P.M................

Db|0--3--6--6--3--0h|3--3--6--0--3--3p|
Ab|0--3--6--6--3--0h|3--3--6--0--3--3p|
Db|0--3--6--6--3--0h|3--3--6--0--3--3p|

Db|----------------|
Ab|----------------|
Db|6306306305204030|
P.M................

Db|3p2---3p2---3p2---3p2---|
Ab|---5p2---5p2---5p2---5p2|
Db|------------------------|

Db|--------<7>--<7>|----------------|
Ab|---5------------|---5------------|
Db|9-----------0---|9--------6"-0"--|
P.M            .

Db|----3---<7>--<7>|---3------------|
Ab|5---------------|5--------2"-----|
Db|------------0---|------------3"--|
P.M            .

Db|----------------|
Ab|2"----2"--5"--5"|
Db|----3"------3"--|

Db|----------------|
Ab|5"----5"--8"--8"|
Db|----6"------6"--|

Db|0----|
Ab|0----|
Db|0----|
            
Hard to play? Try these video lessons and learn fast. | Correct




comments powered by Disqus
↑ Back to top | Tablatures and chords are parodies/interpretations of the original songs. You may use it for private study, scholarship, research or language learning purposes only