» » »

Priests Of Sodom Tabs (ver.1)

Artists:  A B C D E F G H I J K L M N O P Q R S T U V W X Y Z # 

Priests Of Sodom Tabs (ver.1)

Cannibal Corpse
Rating:
0/5 (0 votes)

Hard to play? Try these video lessons and learn fast.
                                           Cannibal Corpse
                           Priest Of Sodom (2009)

  Key     Means
 ------------------------
|  /    | Slide up to..  |
|  \    | Slide down to..|
|  .    | Palm Mute      |
|  ~    | Vibrato        |
|  b    | bend           |
 ------------------------


 Note: When you bend, do not bend that much, just I little

This is a f**king awesome song! The tune is A#.
Hope you like it! Enjoy this f**king sh*t!


Fig. 1
|---------------------------------------------------------------|
|---------------------------------------------------------------|
|---------------------------------------------------------------|
|-7/10\9\6-101010101010101010101010--------------7/10\----------|
|-5/8 \7\4--------------------------10-9-7-9-7-6-5/8 \----------|
|---------------------------------------------------------------|
                                    .  . . . . .

Fig. 2
|---------------------------------------------------------------------|
|---------------------------------------------------------------------|
|--------------------------------------------6------------------------|
|------5---3-------------------------6---8\5-4------------------------|
|------3---1-2222222277778888-5~-----4---6\3-4-888888101010107775555~-|
|--0-0-3-0-1---------------------0-0-4-0-6\3--------------------------|
   . .   .                      . .

Fig. 3
|-----------------------------------------------------------|
|-----------------------------------------------------------|
|-----------------------------------------------------------|
|-----------------------------------------------------------|
|-8-7---7---------------2-2-2-2-2-2-------------------------|
|-----8---8-7-6-7-5-6-5-0-0-0-0-0-0-------------------------|
  . . . . . . . . . . . . . . . . .

Fig.4 (bridge)
---------------------------------------------------------------|
---------------------------------------------------------------|
---------------------------------------------------------------|
---------------------------------------------------------------|
---------------------------------------------------------------|
-8-7-6-7-5-6-5~~~----------------------------------------------|
 . . . . . .

Fig. 5
|---------------------------------------------------------------|
|---------------------------------------------------------------|
|---------------------------------------------------------------|
|-----3-----3-----5b--------------------------------------------|
|-----1-----1-----3b(2x)-2-2-2-2-2-2----------------------------|
|-0-0-1-0-0-1-0-0-3b-----0-0-0-0-0-0----------------------------|
  . .   . .   . .        . . . . . .
            
Hard to play? Try these video lessons and learn fast. | Correct




comments powered by Disqus
↑ Back to top | Tablatures and chords are parodies/interpretations of the original songs. You may use it for private study, scholarship, research or language learning purposes only