>
 >
Perverse Suffering

Perverse Suffering Guitar Tabs

Cannibal Corpse - Perverse Suffering chords, tabs, tablatures, lyrics

Guitar lessons | Add/correct | Request | Top 50 tabs Artists:  A B C D E F G H I J K L M N O P Q R S T U V W X Y Z 0-9

Perverse Suffering Guitar Tabs – Cannibal Corpse

CD, Sheet music, Poster

Do you like Perverse Suffering? Share with your friends now
TabsTabs v2
Perverse Suffering by Cannibal Corpse

Played on a 6 string guitar tuned to Eb
Originally played on 7 string tuned to Bb
                         
Tune Gtr to Eb

Intro Riff    Riff 1a                   Riff 1b
|----------||-------------------------||----------------------|
|----------||-------------------------||----------------------|
|----------||-------------------------||----------------------|
|-9--6--3--||----------------7--4--3--||----------------------|
|-7--4--3--||----------------7--4--3--||-------------------8/-|
|----------||8-10-11-8-10-11----------||-8-10-11-8/-8-10-11---|
                                       PM* *  *  *  *  *  **                                 

Riff A1
|----------------------------------|
|----------------------------------|
|----------------------------------|
|-------------/9—-4-4-4-4-4-4-4-4--|
|-4-----6-5-4-/7--2-2-2-2-2-2-2-2--|
|---4-3----------------------------|
PM* * * * * *     * * * * * * * *


Riff A2
|--------------------------|
|--------------------------|
|--------------------------|
|-----------------9—-6--5--|
|-4-----6-5-4-/7--7--4--3--|
|---4-3-4-3-2--------------|
PM* * * * * *


Riff A3
|-----------------------------------|
|-----------------------------------|
|-----------------------------------|
|-----------------9—-6--5-----7-----|
|-4-----6-5-4-/7--7--4--3--6--5--5--|
|---4-3-4-3-2-/5-----------4-----3--|
PM* * * * * *


Riff B1
|----------------------------------------------------------------------------|
|----------------------------------------------------------------------------|
|----------------------------------------------------------------------------|
|----------------------------ph----------------------------------------------|
|-4-------6-5-7~--4-------6-5-----4-------6-5-7~----------------4(tr7)-3(tr6)|
|---4-3-2-4-3-5~----4-3-2----2~-----4-3-2-4-3-5~-6(tr9)-3(tr6)---------------|
PM* * * * * *     * * * * * *     * * * * * *

Riff B2
|----------------------------------------------------------------------------------------|
|----------------------------------------------------------------------------------------|
|----------------------------------------------------------------------------------------|
|----------------------------ph----------------------------------------------------------|
|-4-------6-5-7~--4-------6-5-----4-------6-5-7~-------------4(tr7)-3(tr6)-6(tr9)-9(tr12)|
|---4-3-2-----------4-3-2-----2~----4-3-2-------6(tr9)-3(tr6)----------------------------|
PM** * * * *     ** * * * *     * * * * * *  



Riff C
|------------------------------------------------------------------------------------|
|------------------------------------------------------------------------------------|
|------------------------------------------------------------------------------------|
|------------------------------------------------------------------------------------|
|-T---T---T---T---T---T---T---T----T---T---T---T---T---T---T---T----T---T---T---T----|
|-9p6-9p6-9p6-9p6-9p6-9p6-9p6-9p6--6p3-6p3-6p3-6p3-6p3-6p3-6p3-6p3--9p6-9p6-9p6-9p6--|



Riff C1 cont.
|------------------------------------|
|------------------------------------|
|------------------------------------|
|------------------------7-----------|
|-T---T---T---T----7--5--5--4--3--2--|
|-9p6-9p6-9p6-9p6--5--3-----2--1--0--|


Riff B3
|-----------------------------------------------|
|-----------------------------------------------|
|-----------------------------------------------|
|-----------------------------------------------|
|-4-------6-5-7~-----------------4(tr7)-3(tr6)--|
|---4-3-2---------6(tr9)-3(tr6)-----------------|
PM* * * * * *


Riff B4
|--------------------------------------------------------------|
|--------------------------------------------------------------|
|--------------------------------------------------------------|
|--------------------------------------------------------------|
|-4-------6-5-7~-----------------4(tr7)-3(tr6)-6(tr9)-9(tr12)--|
|---4-3-2---------6(tr9)-3(tr6)--------------------------------|
PM* * * * * *


Riff D1
|-----------------------------|
|-----------------------------|
|-----------------------------|
|-----------------------------|
|-4-------6-5-4-5-7—-5-4-ph---|
|---4-3-2----------------2~~--|
PM* * * * * * * * *  * *
Riff E
|-----------------------------------------------|
|-----------------------------------------------|
|-----------------------------------------------|
|-----------------------------------------ph----|
|-2-3-2-6\5--2-3-2-6\5--2-3-2-6\5--2-3-2-2-2~~--|
|-0-1-0-4\3--0-1-0-4\3--0-1-0-4\3--0-1-0-0------|
PM* * *      * * *      * * *      * * * *

Riff D2
|----------------------------|
|----------------------------|
|----------------------------|
|-----------------------ph---|
|---4-3-2----------------2b--|
|-2-------4-3-2-3-5--3-2-----|
PM* * * * * * * * *  *


Riff F
|-------------------------------------------------|
|-------------------------------------------------|
|-------------------------------------------------|
|-------------9(tr12)-8(tr11)---------------------|
|-2-2-2-3-3-3-----------------2-2-2-3-3-3--7---4--|
|-0-0-0-1-1-1-----------------0-0-0-1-1-1--5-0-2--|
PM* * * * * *                 * * * * * *    *





Comments


Popular Cannibal Corpse tabs & chords
Hammer-Smashed Face Bass Tabs
Compelled To Lacerate Tabs
Disfigured 3 Tabs
Hammer Smashed Face 2 Tabs
Post Mortal Ejaculation Tabs
Scattered Remains Splattered Brains 1 Tabs
Sentenced To Burn 2 Tabs
Smoke On The Water Tabs
Stripped Raped And Strangled 1 Tabs
When Death Replaces Life 1 Tabs


Song lyrics



↑ Back to top | Tablatures and chords are parodies/interpretations of the original songs. You may use it for private study, scholarship, research or language learning purposes only
© 2014 AZChords.com Contact us | Privacy policy | DMCA | Add/correct tabs | Request tabs | Top 50 tabs