» » »

Cannibal Corpse, Meat Hook Sodomy Tabs (ver.1)

Artists:  A B C D E F G H I J K L M N O P Q R S T U V W X Y Z # 

Meat Hook Sodomy Tabs (ver.1)

Cannibal Corpse Tabs
Rating:
0/5 (0 votes)
Meat Hook Sodomy lessons Tabs too difficult? Try these video lessons and learn fast
                Cannibal Corpse "Meathook Sodomy"

    Tune to E flat
                                                           song order
   |-----------------------------------|                   
   |-----------------------------------|                   riff A x 8
   |-----------------------------------|                   riff B x 8
   |-----------------------------------|  riff A           riff A x 4
   |878--9(10)9--898--10(11)10--11(12)-|                   riff C x 4
   |---00------00---00-----------------|                   riff D x 4
    hp     hp    hp     hp         h                       riff C x 4
                                                           riff D x 4
   |----------------------------|                          riff A x 8
   |----------------------------|                          riff E x 5
   |----------------------------|                          riff F x 8
   |----------------------------|   riff B                 riff G x 4
   |3------5------4-------------|                          riff G+H x 4
   |1-0000-3-0000-2-0000-343-45-|                          riff G+I x 2
                          hp  h                            riff H+I x 1
                                                           riff H x 1
                                                           riff G x 4
                                                           riff J x 1
   |--------------------------------|                      riff JJ x 6
   |--------------------------------|                      riff E x 4
   |--------------------------------|                      riff K x 4
   |2-------5-------3---------------|  riff C              riff B x 2
   |2-------5-------3-------4\5-3\4-|                      riff A x 2
   |0-0-0-0-3-0-0-0-1-0-0-0-2\3-1\2-|                      riff B,A,B,A,B,BB,B,BB
                                                           

   |--------------------------------|
   |--------------------------------|
   |--------------------------------|
   |--------------------------------|  riff D
   |--9-6-----8-5-----7-4-----6-3---|
   |0-7-4-0-0-6-3-0-0-5-2-0-0-4-1-0-|
    

   |--------------------------------|---------------------------------|
   |--------------------------------|---------------------------------|
   |--------------------------------|---------------------------------|
   |--------------------------------|---------------------------------|  riff e
   |--------------------------------|---------------------------------|
   |33336666000033332222555511114444|33336666000033331111444422225555-|

    riff E is played 3 different ways, varying the length of each note


    
   |--------------------|
   |--------------------|
   |--------------------|
   |--------------------|  riff F
   |--------------------|
   |xxxx---6-5-3-232323-|
   (snare)       h h h



   |---------------------------|              
   |---------------------------|
   |---------------------------|
   |---------------------------|  riff G(triplet feel)
   |543543---432432---321321-3-|
   |------543------432-------1-|
    {3}{3}ect..


   |--------------|--------------|---------|
   |--------------|--------------|---------|
   |--------------|--------------|---------|
   |-7------------|-6------------|---------|  riff H
   |-5------------|-4------------|321321-3-|
   |-5------------|-4------------|-------1-|
 
   
   |----------------------------------|
   |----------------------------------|
   |----------------------------------|  
   |----------------------------------|   riff I(guitar 2)
   |--------------------------------3-|
   |000-000-000-000-000-000-000-000-1-|
     

  
   |-------------------------------|
   |-------------------------------|
   |-------------------------------|  
   |-------------------------------|   riff J
   |------------------4----------4-|
   |5555564444453333342------4-5---|
   



   |--------------------------|
   |--------------------------|
   |--------------------------| 
   |------------------------4-|  riff JJ
   |--------------------4-5---|
   |5555564444453333342-------|


   |-----------------------|
   |-----------------------|
   |-----------------------|
   |-----------------------|  riff K
   |-----------------------|
   |xxxxxx----8-7-5-454545-|
    (snare)         h h h


   |-------------------------------------| 
   |-------------------------------------|
   |-------------------------------------| 
   |-------------------------------------|  riff BB
   |3------5------4------10(11)10-11(12)-|
   |1-0000-3-0000-2-0000-----------------|
                            hp      h
            

comments powered by Disqus
↑ Back to top | Cannibal Corpse Tabs for Meat Hook Sodomy. Lyrics for acoustic guitar and electric guitar. Tablatures and chords are parodies/interpretations of the original songs. You may use it for private study, scholarship, research or language learning purposes only