» » »

Evisceration Plague Bass tabs (ver.1)

Artists:  A B C D E F G H I J K L M N O P Q R S T U V W X Y Z # 

Evisceration Plague Bass tabs (ver.1)

Cannibal Corpse
Rating:
0/5 (0 votes)
Tabs too difficult? Try these video lessons and learn fast.
                Riff B1 (those are 10's)
 [[ Play B1 x6 in the beginning, then B2 x2 ]]
|-------------------------------------------|
|-------------------------------------------|
|-------------------------------------------|
|--7---------t777---t101010-----------------|
|----10-8-7-------0----------0-0-0-0-0-0-0--|

Riff B2
|----------------------------------------|
|----------------------------------------|
|-------------------t888-----------------|
|--7--------t777-------------------------|
|----10-8-7------0-------0-0-0-6-0-0-0---|

Riff C (verse) x2
|-----------------------------------|-----------------------------------||
|-----------------------------------|-----------------------------------||
|-----------------------------------|-----------------------------------||
|--4--------------------------------|--4-------------4------------------||
|----5-4-3-0-0-0-0-3-0-0-3-0-0-0-0--|----5-4-3-0-2-3---0-0-6-0-0-0-0----||

the play:
Riff B1 x2
Riff B2 x2
Riff C x2

Riff D (chorus) x 2
|-----------------------------------|--------------------------------------------------|
|-----------------------------------|--------------------------------------------------|
|---------------5-------------------|----------------------2h5p2h5p2h5p2h5-------------|
|-----------------66664-------------|-----------------------------------------1--------|
|-33333333-0-0---------0-666640-----|-33333333-0-0-0-0-3/2----------------0-0----------|

then play:
Riff B1 x2
Riff B2 x2
Riff C x2
Riff D x4
Riff A (part 1 x2, then part 2 once, then part 1 again but it's cut off !!!)
|---------|
|---------|
|---------|
|---------|
|--0--0---|

Riff E (Bridge) x4
|-----------------------------------|------------------------------------|
|-----------------------------------|------------------------------------|
|-----------------------------------|--------------------------3-4-------|
|------------------3-----3-----2----|------------------3-0-5-0-----5-4-3-|
|--5-2-2-2-2-2-2-2---2-2---2-2---2--|--5-2-2-2-2-2-2-2-------------------|

|-----------------------------------|------------------------------------|
|-----------------------------------|------------------------------------|
|----------6-7-------------7-8------|----------8-9-----------------------|
|--3-0-5-0-----8-7-6-0-7-0-----9-8--|--7-0-8-0-----10-9-8----------------|
|-----------------------------------|------------------------------------|

Riff F (end Bridge) x 4
|-----------------------------|
|-----------------------------|
|-----------------------------|
|------------------10//-------|
|--000-9---//0-0-9------000---|

Riff G x 4
Plague Leads to deaaaaath...
[[ Tremolo picked ]]
|-----------------------------|
|-----------------------------|
|-----------------------------|
|---------------10"---7"------|
|--9"----0"-6"----------------|

Riff G (Behind the solo) x2
 [[ Play the first half x2 then the second half x2 per repitition ]]
|-------------------------------------|-------------------------------------------|
|-------------------------------------|-------------------------------------------|
|--5-------555------------------------|-------------------------------------------|
|----7-6-5-------444------------------|--7---------t777---t101010-----------------|
|--------------0-----6-6-6-6-6-6-6----|----10-8-7-------0----------0-0-0-0-0-0-0--|

Then play:
Riff C x2
Riff D x4
Outro
|-------------------------------|
|-------------------------------|
|-------------------------------|
|--7---------4------------------|
|----10-8-7----7-5--0----3------|
            
Tabs too difficult? Try these video lessons and learn fast.


comments powered by Disqus
↑ Back to top | Tablatures and chords are parodies/interpretations of the original songs. You may use it for private study, scholarship, research or language learning purposes only