>
 >
Evisceration Plague 1

Evisceration Plague 1 Guitar Tabs

Cannibal Corpse - Evisceration Plague 1 chords, tabs, tablatures, lyrics

Guitar lessons | Add/correct | Request | Top 50 tabs Artists:  A B C D E F G H I J K L M N O P Q R S T U V W X Y Z 0-9

Evisceration Plague 1 Guitar Tabs – Cannibal Corpse

CD, Sheet music, Poster

Do you like Evisceration Plague 1? Share with your friends now
Bass TabsBass Tabs v2TabsTabs v2
Evisceration Plague by Cannibal Corpse

This song is awesome, and I really wanted to play it and was sad it wasn't
It's about 90-95%. I'd love to hear comments on this as it's my first Corpse
tab. Now to the good stuff!

Tuning:
Ab standard. This is a whole step lower than on Bloodthirst as a point of
reference, and this might be wrong because the strings I used are pretty
thin so the tuner was going crazy trying to tell me the note for the strings.

Ab Db Gb B Eb Ab (note that the main riffs only use the bottom 3 strings)

t = Triplet (gallop)
^ = bend
. = palm mute
" = tremolo pick

(if tuning the stings down with the tuner isn't working use the open palm
mutes on the lowest string to tune that to the song, and then tune the others
down accordingly. That's how I figured out the tuning. This requires a good
ear though)

Riff A (intro) - you can also do the second part trill on 11h14p11h14p11h14p11h14p11h14 
the 2nd string if you like

 [[ first half x2, second half x2 ]]
 |---------------------------------------||------------------------------------|
 |---------------------------------------||------------------------------------|
 |---------------------------------------||------------------------------------|
 |---------------------------------------||-------------5h8p5h8p5h8p5h8p5h8----|
 |--7-----------7h10p7h10p7h10p7h10p7h10-||--7---------------------------------|
 |----10--8--7---------------------------||----10--8--7------------------------|
      .   .  .                                          .   .  .

Riff B1 (those are 10's)
 [[ Play B1 x6 in the beginning, then B2 x2 ]]
|-------------------------------------------|
|-------------------------------------------|
|-------------------------------------------|
|-------------------------------------------|
|--7---------t777---t101010-----------------|
|----10-8-7-------0----------0-0-0-0-0-0-0--|
     .  . .   ... .  . . .   . . . . . . .

Riff B2
[[ You might miss this but one of those last open notes is NOT palm muted. ]]
|----------------------------------------|
|----------------------------------------|
|----------------------------------------|
|-------------------t888-----------------|
|--7--------t777-------------------------|
|----10-8-7------0-------0-0-0-0-0-0-0---|
     .  . .  ... .   ... . . .   . . .

Riff C (verse) x2
|-----------------------------------|-----------------------------------||
|-----------------------------------|-----------------------------------||
|-----------------------------------|-----------------------------------||
|-----------------------------------|----------------6------------------||
|--3---------------4-----4----------|--3-------------4-----8------------||
|----5-4-3-0-0-0-0-2-0-0-2-0-0-0-0--|----5-4-3-0-2-3---0-0-6-0-0-0-0----||
     . . . . . . .   . .   . . . .       . . . . . .   . .   . . . .

the play:
Riff B1 x2
Riff B2 x2
Riff C x2

Riff D (chorus) x 2
|-----------------------------------|----------------------------------------------|
|-----------------------------------|----------------------------------------------|
|-----------------------------------|----------------------------------------------|
|---------------5-------------------|------------------2h5p2h5p2h5p2h5-----3-------|
|-----------------66664-------------|--------------------------------------1-------|
|-22222222-0-0---------0-666640-----|-22222222-0-0-0-0-----------------0-0---------|
  ........ . .    ...... ......       ........ . . . .                 . .

then play:
Riff B1 x2
Riff B2 x2
Riff C x2
Riff D x4
Riff A (whole thing 2 and 2 again)

At the end of Riff A the last 2 whole beats are cut off and instead you do an open palm 
it's easier to listen to the song and get the timing it's pretty obvious when this happens.

|---------|
|---------|
|---------|
|---------|
|--2--2---|
|--0--0---|
   .  .

Riff E (Bridge) x4

[[ the second part sounds wrong but close maybe someone can figure it out from 
this as a starter :/ ]]
                                                              (these notes wrongish)
|-----------------------------------|-----------------------------------|
|-----------------------------------|-----------------------------------|
|-----------------------------------|-----------------------------------|
|-----------------------------------|--------------------------3-4------|
|------------------3-----3-----2----|------------------3---5-------5-4--|
|--5-2-2-2-2-2-2-2---2-2---2-2---2--|--5-2-2-2-2-2-2-2---2---2----------|
     . . . . . . .   . .   . .   .       . . . . . . .   .   .

Since the end of part 2 sounds a little off I can't make a solid transcription of the climb,
but it will involve the same finger pattern if you find it as the end of the last riff.

Riff F (end Bridge) x 4
[[ The initial triplet isn't played when you start this riff ]]
|-----------------------------|
|-----------------------------|
|-----------------------------|
|-----------------------------|
|------------------10//-------|
|--000-9---//0-0-9------000---|
   ...         .        ...

Riff G x 4
Plague Leads to deaaaaath...
[[ Tremolo picked ]]
|-----------------------------|
|-----------------------------|
|-----------------------------|
|-----------------------------|
|---------------10"---7"------|
|--9"----0"-6"----------------|

Riff G (Behind the solo) x2
 [[ Play the first half x2 then the second half x2 per repitition ]]
|-------------------------------------|-------------------------------------------|
|-------------------------------------|-------------------------------------------|
|-------------------------------------|-------------------------------------------|
|--5-------555------------------------|-------------------------------------------|
|----7-6-5-------555------------------|--7---------t777---t101010-----------------|
|--------------6-----6-6-6-6-6-6-6----|----10-8-7-------0----------0-0-0-0-0-0-0--|
     . . .     .     . . . . . . .         .  . .       .          . . . . . . .

Then play:
Riff C x2
Riff D x4

Outro
|-------------------------------|
|-------------------------------|
|-------------------------------|
|-------------------------------|
|--7---------4------2----4^1/2--|
|----10-8-7----7-5--0----2^1/2--|
     .  . .    . .

As with any song you should listen to the song while reading this to get a
 better grasp of the timing involved and placement. There are also a few
spots where there are some harmonies but I didn't feel compelled to tab them
 out they're pretty minor. Enjoy! Leave your comments at the bottom.





Comments


Popular Cannibal Corpse tabs & chords
Decency Defied 2 Bass Tabs
Addicted To Vaginal Skin 1 Tabs
An Experiment In Homcide Tabs
Blunt Force Castration Tabs
Brain Removal Device Tabs
Butchered At Birth Tabs
Hammer Smashed Face Tabs
Pounded Into Dust Tabs
Puncture Pulverized Tabs
Punture Wound Massacre Tabs


Song lyrics



↑ Back to top | Tablatures and chords are parodies/interpretations of the original songs. You may use it for private study, scholarship, research or language learning purposes only
© 2014 AZChords.com Contact us | Privacy policy | DMCA | Add/correct tabs | Request tabs | Top 50 tabs