» » »

Entrails Ripped From A Virgins Cunt Tabs (ver.1)

Artists:  A B C D E F G H I J K L M N O P Q R S T U V W X Y Z # 

Entrails Ripped From A Virgins Cunt Tabs (ver.1)

Cannibal Corpse
Rating:
0/5 (0 votes)

Hard to play? Try these video lessons and learn fast.
                Riff 1
e|---------------------------------------------------------------
B|---------------------------------------------------------------
G|---------------------------------------------------------------
D|----------------7----------------------------------------------
A|--------2---4---7----------------------------------------------
E|--000---0-0-2-0-5----------------------------------------------
    ...

Riff 2 (verse)
e|---------------------------------------------------------------
B|---------------------------------------------------------------
G|---------------------------------------------------------------
D|---------------------------------------------------------------
A|-------2---4---7---6---5---3---4-------------------------------
E|--000--0-0-2-0-5-0-4-0-3-0-1-0-2-------------------------------
    ...    .   .   .   .   .   .

Riff 3
e|---------------------------------------------------------------
B|---------------------------------------------------------------
G|---------------------------------------------------------------
D|---------------------------------------------------------------
A|------3-----3------7s8-6----------------------------------------
E|--000-1-000-1-000--5s6-4---------------------------------------
    ...   ...   ...

Riff 1
e|---------------------------------------------------------------
B|---------------------------------------------------------------
G|---------------------------------------------------------------
D|---------------------------------------------------------------
A|---------------------------------------------------------------
E|--0-5-0-4-0-6-0-4-0-7-0-5-0-8-7-8-7----------------------------
    . . . . . . . . . . . . . . . . .

Riff 4A
e|---------------------------------------------------------------
B|---------------------------------------------------------------
G|---------------------------------------------------------------
D|--------2-2-2--------------------------------------------------
A|---------------7---8---7---6---2-------------------------------
E|--4-4-4--------5-s-6-s-5---4---0-------------------------------

Riff 4B
e|---------------------------------------------------------------
B|---------------------------------------------------------------
G|---------------------------------------------------------------
D|--------2-2-2--------------------------------------------------
A|--------------4-4-4------------------------7---8---7---6---2---
E|--4-4-4---------------1-1-1-2-2-2-0-0-0----5-s-6-s-5---4---0---

Riff 5
e|---------------------------------------------------------------
B|---------------------------------------------------------------
G|---------------------------------------------------------------
D|---------------------------------------------------------------
A|------3-4-3----------------------------------------------------
E|--000-1-2-1----------------------------------------------------
    ...

Riff 6
e|---------------------------------------------------------------
B|---------------------------------------------------------------
G|---------------------------------------------------------------
D|---------------------------------------------------------------
A|----------444---------3----------------------------------------
E|--000-111-----111-222-1----------------------------------------

Riff 7
e|---------------------------------------------------------------
B|---------------------------------------------------------------
G|---------------------------------------------------------------
D|---------------------------------------------------------------
A|------------------------------111------------------------------
E|--000-333-000-111-000-333-000----------------------------------
    ...     ...     ...     ...

Fig. 8
e|---------------------------------------------------------------
B|---------------------------------------------------------------
G|---------------------------------------------------------------
D|---------------------------------------------------------------
A|--4-----4s524-3-----4-4-4-4------------------------------------
E|--2-0-0-2s3s2-1-0-0-------2------------------------------------


Riff 9
e|---------------------------------------------------------------
B|---------------------------------------------------------------
G|--4------------------------------------------------------------
D|----1-2--------------------------------------------------------
A|--------222----------------------------------------------------
E|---------------------------------------------------------------

Riff 10 (outro)
e|---------------------------------------------------------------
B|---------------------------------------------------------------
G|---------------------------------------------------------------
D|---------------------------------------------------------------
A|------7s8-6------3s4-3-----------------------------------------
E|--0-0-5s6-4--0-0-1s2-1-----------------------------------------
            
Hard to play? Try these video lessons and learn fast. | Correct




comments powered by Disqus
↑ Back to top | Tablatures and chords are parodies/interpretations of the original songs. You may use it for private study, scholarship, research or language learning purposes only