» » »

Cannibal Corpse, Dormant Bodies Bursting Tabs (ver.2)

Artists:  A B C D E F G H I J K L M N O P Q R S T U V W X Y Z # 

Dormant Bodies Bursting Tabs (ver.2)

Cannibal Corpse Tabs
Rating:
0/5 (0 votes)
Dormant Bodies Bursting lessons Tabs too difficult? Try these video lessons and learn fast
                Cannibal Corpse
Dormant Bodies Bursting
Gore Obsessed


As with all guitar tablature, a mono-spaced font
(e.g. Courier or Monaco) is required to display properly...

[tuning is B-flat, with standard intervals between strings]

Fig. 1a
|-------------------------|
|-------------------------|
|-------6/5-5-5\4-4-4\3-3-|
|-------6/5-5-5\4-4-4\3-3-|
|-3---2-4/3-3-3\2-2-2\1-1-|
|-1---0-------------------|


1b
|--------|
|--------|
|--------|
|--------|
|-3---2--|
|-1---0--|


Fig. 2
|---------------------------|
|---------------------------|
|-8/7-7-7\6-6-6\5-5---------|
|-8/7-7-7\6-6-6\5-5---------|
|-6/5-5-5\4-4-4\3-3---------|
|-------------------110000--|


Fig. 3a
|--------------------------|
|--------------------------|
|-8\7-7-9\8-8-6------------|
|-8\7-7-9\8-8-6------------|
|-6\5-5-7\6-6-8-----3-2-2--|
|-------------------1-0-0--|


3b
|--------------------------|
|--------------------------|
|-8\7-7-9\8-8-10-----------|
|-8\7-7-9\8-8-10-----------|
|-6\5-5-7\6-6-*8----3-2-2--|
|-------------------1-0-0--|


Fig. 4
[gtr. 1]
|---------------------------------------------------------------------|
|---------------------------------------------------------------------|
|---------------------------------------------------------------------|
|-3-----------3------------3------------3-----------------------------|
|-2-----------2------------2------------2------------2-2-2-2-1-1-0-0--|
|-----00000000-----00000000-----00000000-----000000004-4-4-4-3-3-2-2--|

[gtr. 2]
|---------------------------------------------------------------------|
|---------------------------------------------------------------------|
|----------------------------------------------------4-4-4-4-3-3-2-2--|
|-3-----------3------------3------------3------------6-6-6-6-5-5-4-4--|
|-2-----------2------------2------------2-----------------------------|
|-----00000000-----00000000-----00000000-----00000000-----------------|
            
Submit corrections

comments powered by Disqus
↑ Back to top | Cannibal Corpse Tabs for Dormant Bodies Bursting. Lyrics for acoustic guitar and electric guitar. Tablatures and chords are parodies/interpretations of the original songs. You may use it for private study, scholarship, research or language learning purposes only