» » »

Disfigured Tabs (ver.1)

Artists:  A B C D E F G H I J K L M N O P Q R S T U V W X Y Z # 

Disfigured Tabs (ver.1)

Cannibal Corpse
Rating:
0/5 (0 votes)

Hard to play? Try these video lessons and learn fast.
                Tune down a half-step
palm-mute all open string notes

Riff 1 (2 times)                          
E -----------------------------------------------------
B -----------------------------------------------------
G -----------------------------------------------------
D -----------------------------------------------------
A ----7-----10-----7-----4-----7-----10-----11-----11--
E 0-0---0-0----0-0---0-0---0-0---0-0----0-0----0-0-----Riff 2 (2 times)

E -----------------------------------------------
B -----------------------------------------------
G -----------------------------------------------
D 8-----5-----8-----11-----8-----5-----8-----14--
A --0-0---0-0---0-0----0-0---0-0---0-0---0-0-----
E -----------------------------------------------Riff 1 again twice
Riff 3 (16 times)
E -------
B -------
G -------
D -------
A 4------
E --0-0--

Verse riff
E ---------------------------------------------------
B ---------------------------------------------------
G ---------------------------------------------------
D ---------------------------------------------------
A 4-----7-----4-----------4-----7-----10-----7-------
E --0-0---0-0---0-0-0-0-0---0-0---0-0----0-0----0-0--
            
Hard to play? Try these video lessons and learn fast. | Correct




comments powered by Disqus
↑ Back to top | Tablatures and chords are parodies/interpretations of the original songs. You may use it for private study, scholarship, research or language learning purposes only