>
 >
Blowtorch Slaughter 2

Blowtorch Slaughter 2 Bass Tabs

Cannibal Corpse - Blowtorch Slaughter 2 chords, tabs, tablatures, lyrics

Guitar lessons | Add/correct | Request | Top 50 tabs Artists:  A B C D E F G H I J K L M N O P Q R S T U V W X Y Z 0-9

Blowtorch Slaughter 2 Bass Tabs – Cannibal Corpse

CD, Sheet music, Poster

Do you like Blowtorch Slaughter 2? Share with your friends now
Bass TabsBass Tabs v2Bass Tabs v3TabsTabs v2
D||----------------|----------------|----------------|----------------|
A||--------4-4-4-4-|--------4-4-4-4-|--------4-4-4-4-|--------4-4-4-4-|
E||--6--5----------|--6--5----------|--6--5----------|--6--5----------|
B||----------------|----------------|----------------|----------------|


                                                                             
------------------------|----------------|----------------------------------|
--------4-4-4-4---------|----------------|----------------------------------|
--6--5----------6-6-5-5-|--0-0----4/5-0--|--6-6-6-6-9-6-6-6-9-6-6-6-9-6-6-6-|
------------------------|------4---------|----------------------------------|


                                                                    
------------------|----------------|-------------------------------|
--4-4-4-4---------|----------------|-------------------------------|
----------6-6-5-5-|--0-0----4/5-0--|----------0----------0------0--|
------------------|------4---------|--2-2-2-2----2-2-2-2----2-2----|


                                                                             
------------------|----------------|----------------------------------------|
--4-4-4-4---------|----------------|----------------------------11-11-10-10-|
----------6-6-5-5-|--0-0----4/5-0--|--6-6-6-6-9-6-6-6-9-9-12-12-------------|
------------------|------4---------|----------------------------------------|


                                                                     3x
------------------|----------------||--------------------------------||
--4-4-4-4---------|----------------||*------------------------------*||
----------6-6-5-5-|--0-0----4/5-0--||*----------0----------4--3--0--*||
------------------|------4---------||---2-2-2-2----2-2-2-2-----------||


                                                                  
--------------------------------|--------------------------------|
--------------------------------|--------------------------------|
--6-6-6-6-6-6-6-----------------|--6-6-6-6-6-6-6-----------------|
----------------2-5-3--6--4-7/8-|----------------2-5-3--6--4-7/8-|


                                                                  
--------------------------------|--------------------------------|
--------------------------------|--------------------------------|
--6-6-6-6-6-6-6-----------------|--6-6-6-6-6-6-6-----------------|
----------------2-5-3--6--4-7/8-|----------------2-5-3--6--4-7/8-|


                                                                          
|-----------------------------------|-----------------------------------||
|*----------------------------------|----------------------------------*||
|*----------------------------------|----------------------------------*||
|---2h3h2h0-2h3h6h3-2h3h2h0-2h3h6h3-|--2h3h2h0-2h3h6h3-2h3h2h0-2h3h6h6--||


                                                                  
--------------------------------|--------------------------------|
--------------------------------|--------------------------------|
--6-6-6-6-6-6-6-----------------|--6-6-6-6-6-6-6-----------------|
----------------2-5-3--6--4-7/8-|----------------2-5-3--6--4-7/8-|


                                                                  
--------------------------------|--------------------------------|
--------------------------------|--------------------------------|
--6-6-6-6-6-6-6-----------------|--6-6-6-6-6-6-6-----------------|
----------------2-5-3--6--4-7/8-|----------------2-5-3--6--4-7/8-|


                                 3x                  
|--------------------------------||-----------------|
|*------------------------------*||-----------------|
|*----------0----------4--3--0--*||-----------------|
|---2-2-2-2----2-2-2-2-----------||--2----3----5----|


                                                
|---------------------------------------------||
|*-------------------------------------------*||
|*--------------1/3-4------------------------*||
|---3-4-6-4-6-8-------------------------------||


                                                                   
------------------------------------------------------------------|
------------------------------------------------------------------|
--------------1/3-------------------------------------------------|
--3-4-6-4-6-8-----0-0-0-0-0-0-0-0-0-0-0-0-0-0-0-0-0-0-0-0-0-0-0-0-|


                                                                   
------------------------------------------------------------------|
------------------------------------------------------------------|
--------------1/3-------------------------------------------------|
--3-4-6-4-6-8-----0-0-0-0-0-0-0-0-0-0-0-0-0-0-0-0-0-0-0-0-0-0-0-0-|


                                                                   
------------------------------------------------------------------|
------------------------------------------------------------------|
--------------1/3-4-4-4-4-4-4-4-4-4-4-4-4-4-4-4-4-4-4-4-4-4-4-4-4-|
--3-4-6-4-6-8-----------------------------------------------------|


                                                                   
------------------------------------------------------------------|
------------------------------------------------------------------|
--------------1/3-4-4-4-4-4-4-4-4-4-4-4-4-4-4-4-4-4-4-4-4-4-4-4-4-|
--3-4-6-4-6-8-----------------------------------------------------|


                                                                   
------------------------------------------------------------------|
------------------------------------------------------------------|
--------------1/3-------------------------------------------------|
--3-4-6-4-6-8-----0-0-0-0-0-0-0-0-0-0-0-0-0-0-0-0-0-0-0-0-0-0-0-0-|


                                                               
--------------------------------------------------------------|
--------------------------------------------------------------|
--------------1/3---------------------------------------------|
--3-4-6-4-6-8-----9-9-6-6-8-8-5-5-7-7-4-4-6-6-3-3-5-5-2-4-4-1-|


                                                 2x
|------------------------------------------------||
|*----------------------------------------------*||
|*----------------------------------------------*||
|---9-9-6-6-8-8-5-5-7-7-4-4-6-6-3-3-5-5-2-4-4-1--||


                            2x                                             
----------------------------||--------------------------------------------|
*--------------------------*||--------------------------------------------|
*--------------------------*||-----------------------------------4--3--0--|
---2----3----5---1--0--6/---||--2----3----5---1--0-----2----5-------------|


                                                              
------------------------------|------------------------------|
------------------------------|------------------------------|
----------0----------4--3--0--|----------0----------4--3--0--|
--2-2-2-2----2-2-2-2----------|--2-2-2-2----2-2-2-2----------|


                                                                        
------------------------------|----------------------------------------|
------------------------------|----------------------------11-11-10-10-|
----------0----------4--3--0--|--9-6-6-6-9-6-6-6-9-9-12-12-------------|
--2-2-2-2----2-2-2-2----------|----------------------------------------|


                                                                                
--------------------------------------|----------------------------------------|
--------------------------------------|----------------------------11-11-10-10-|
--12-9-9-9-12-9-9-9-12-9-9-9-12-9-9-9-|--9-6-6-6-9-6-6-6-9-9-12-12-------------|
--------------------------------------|----------------------------------------|


                                                                 3x
-------------------------------||--------------------------------||
-------------------------------||*------------------------------*||
--12-9-9-9-12-9-9-9------------||*----------0----------4--3--0--*||
--------------------2---2---2--||---2-2-2-2----2-2-2-2-----------||


                                                                  
--------------------------------|--------------------------------|
--------------------------------|--------------------------------|
--6-6-6-6-6-6-6-----------------|--6-6-6-6-6-6-6-----------------|
----------------2-5-3--6--4-7/8-|----------------2-5-3--6--4-7/8-|


                                                                  
--------------------------------|--------------------------------|
--------------------------------|--------------------------------|
--6-6-6-6-6-6-6-----------------|--6-6-6-6-6-6-6-----------------|
----------------2-5-3--6--4-7/8-|----------------2-5-3--6--4-7/8-|


                                                                             
|----------------------||------------------------||------------------------||
|*--------------------*||*----------------------*||*----------------------*||
|*--------------------*||*----------------------*||*----------------------*||
|---2--------2---------||---2----2----2----2-----||---2----2----2----2-----||





Comments


Popular Cannibal Corpse tabs & chords
Evisceration Plague 2 Bass Tabs
Gallery Of Suicide Bass Tabs
Disfigured 1 Tabs
Dormant Bodies Bursting Tabs
Dormant Bodies Bursting 1 Tabs
Hammer Smashed Face 1 Tabs
I Cum Blood 1 Tabs
Pick Axe Murders Tabs
Split Wide Open Tabs
The Spine Splitter 1 Tabs


Song lyrics



↑ Back to top | Tablatures and chords are parodies/interpretations of the original songs. You may use it for private study, scholarship, research or language learning purposes only
© 2014 AZChords.com Contact us | Privacy policy | DMCA | Add/correct tabs | Request tabs | Top 50 tabs