>
 >
Bent Backwards And Broken

Bent Backwards And Broken Guitar Tabs

Cannibal Corpse - Bent Backwards And Broken chords, tabs, tablatures, lyrics

Guitar lessons | Add/correct | Request | Top 50 tabs Artists:  A B C D E F G H I J K L M N O P Q R S T U V W X Y Z 0-9

Bent Backwards And Broken Guitar Tabs – Cannibal Corpse

CD, Sheet music, Poster

Do you like Bent Backwards And Broken? Share with your friends now
TabsTabs v2
Cannibal Corpse - The Wretched Spawn - Bent Backwards And Broken (2004)

.  - palm mute           /  - slide up to
\  - slide down to       ~  - vibrato
h  - hammer on           b  - Bend
p  - pull off            Suffixes for bend
t  - tap                 f  - full bend    h - half bend
ph - pinched harmonic    q  - quarter bend t - tap bend
*  - see comment         ^  - Hold bend    r release bend
x  - Stuccatto           ~  - vibrato bend
,  - slight palm mute    () - ghost note, sustained note
"  - tremolo note        <> - Trill

Tunning Bb.

Riff1.0
|--------------------------------------------------------------------------|
|--------------------------------------------------------------------------|
|--6-----6-6-6-6--------------------------------------4--------------------|
|--4-----4-4-4-4--4-----------------4~-----------6-----------5-----7-----6-|
|----0''------------5-4-3/5h6p5h6p5---6-5-4-3-6----0-0---0-0---0-0---0-0---|
|--------------------------------------------------------------------------|

...Riff1.1                                                end n1
|-------------------------------------------------------------------|
|-------------------------------------------------------------------|
|------------------------------------------------------------5------|
|---------------------7h8p7h8p7----7h10p7...-----------------4------|
|--6-5-4-3/5h6p5h6p5------------0-------------54320-5h6p5-0--4--4/6-|
|-------------------------------------------------------------------|

...Riff1.2
|----------------------------------------------------------------------------|
|----------------------------------------------------------------------------|
|---------------------------------4------------------------------------------|
|--------------4------------6-----------5-----7-----6-----555--444-----------|
|--5-4-3-0-4/6---6-5-4-3-6----0-0---0-0---0-0---0-0---0''----00---00666666---|
|----------------------------------------------------------------------------|

...Riff1.3
|----------------------------------------------------------------------------|
|----------------------------------------------------------------------------|
|------------4---------------------------------------------------------------|
|--5-4-6-----------5-----7-----6---------------------7h8p7h8p7----7h10p7...--|
|--------0-0---0-0---0-0---0-0----6-5-4-3/5h6p5h6p5------------0-------------|
|----------------------------------------------------------------------------|

...Riff1.4
|-------------------------------|
|-------------------------------|
|----------------6-6-6-6-6------|
|----------------4-4-4-4-4------|
|--54320 5h6p5-0-4-4-4-4-4------|
|-------------------------------|
                 . . . . .

...Riff1.5______end n2
|-------------------------------------------------------------|
|-------------------------------------------------------------|
|----------------------------------------4--------------------|
|----6\5\4-------------4-----------6-----------5-----7-----6--|
|----4\3\2-5-4-3-0-4/6---6-5-4-3-6---0-0---0-0---0-0---0-0----|
|-------------------------------------------------------------|



...Riff1.6
|-------------------------------------------------------------|
|-------------------------------------------------------------|
|------------------------------------8''-------------88811''--|
|------------------555--444--------------8p0-7p0--------------|
|-0000000000000000----00---00666666--------------9p0----------|
|-------------------------------------------------------------|

...Riff1.7
|--------------------------------------------------|
|--------------------------------------------------|
|--10h7p0-9h6p0-10h7p0-9h6p0--------------------8''|
|-----------------------------555--444-------------|
|--------------------------------00---00666666-----|
|--------------------------------------------------|

end of riff 1.7
|----------------------------------------------------|
|----------------------------------------------------|
|----------------------------------------------------|
|--15t9p6p9--------15t9p6p9--------15t9p6p9----------|
|----------16t9p6p9--------16t9p6p9---------16t9p6p9-|
|----------------------------------------------------|


Riff2
|--------------------------------------------|
|--------------------------------------------|
|--------------------------------------------|
|---7''...--4''...---8/7/6/5/4--4~-----------|
|--------------------6/5/4/3/2---------------|
|--------------------------------------------|


Riff3
|-------------------------------------------------------|
|-------------------------------------------------------|
|-------------------------------------------------------|
|-------------------------------------------------------|
|--10-9-8-7----------5-----8---------------6---4---7----|
|-----------10-9-0-0---0-0----0-000-000000---0---0------|


Riff4

|-------------------------------------------------------------------------|
|-------------------------------------------------------------------------|
|-------------------------------------------------------------------------|
|-------6-6---------------------------------------------------------------|
|-----------8-8-5-5-------5-----2---------------7---9-----12-----11---10--|
|---0-0-------------0-0-0---0-0---0-5-5-5-2-0-6---6---0-0----0-0----9-----|
                                            . . . .   . . .  . .  . .  .

Riff5  3 times       1 end    2 end            3 end
|------------------|---------|------------------|------------------------------|
|------------------|---------|------------------|------------------------------|
|------------------|---------|------------------|------------------------------|
|----5---4---6-----|---------|------------------|-----------------3''2''6''4''-|
|----3---2---4-----|---------|--3''-2''-5''-3''-|--3''-2''-5''-3''-------------|
|--0---0---0---0---|--000320-|------------------|------------------------------|
   .   .   .   .

Riff6     (Solo's Base)
|-----------------------------------------------------------|
|-----------------------------------------------------------|
|--6----6-6-6-6------------6------------------------7-6-----|
|--4----4-4-4-4-5--------5-4----------5-6-----------5-4-----|
|----0''--------3''7-7-7-3---0''7-7-7-3-4''-3-6-3h6-----0''-|
|------------------5-5-5--------5-5-5-----------------------|


Repeat riffs 1.0 and 1.1 without end n1

End Part___4 times           End of Song.
|--------------------------|-------------|
|--------------------------|-------------|
|--------------------------|--6-6-6-6-6--|
|--------------------6/5/4-|--4-4-4-4-4--|
|--54320-5h6p5-0-3p0-4/3/2-|--4-4-4-4-4--|
|--------------------------|-------------|
                              . . . . .





Comments


Popular Cannibal Corpse tabs & chords
Disposal Of The Body 1 Bass Tabs
Beyond The Cemetery 1 Tabs
Dismembered And Molested 1 Tabs
Hammer Smashed Face 5 Tabs
No Remorse Tabs
No Remorse 1 Tabs
Pit Of Zombies 1 Tabs
Scalding Hail Tabs
Unleashing The Bloodthirsty 1 Tabs
Vomit The Soul Tabs


Song lyrics



↑ Back to top | Tablatures and chords are parodies/interpretations of the original songs. You may use it for private study, scholarship, research or language learning purposes only
© 2014 AZChords.com Contact us | Privacy policy | DMCA | Add/correct tabs | Request tabs | Top 50 tabs