>
 >
A Skull Full Of Maggots 2

A Skull Full Of Maggots 2 Guitar Tabs

Cannibal Corpse - A Skull Full Of Maggots 2 chords, tabs, tablatures, lyrics

Guitar lessons | Add/correct | Request | Top 50 tabs Artists:  A B C D E F G H I J K L M N O P Q R S T U V W X Y Z 0-9

A Skull Full Of Maggots 2 Guitar Tabs – Cannibal Corpse

CD, Sheet music, Poster

Do you like A Skull Full Of Maggots 2? Share with your friends now
Bass TabsTabsTabs v2Tabs v3Tabs v4
Band:  Cannibal Corpse

Legend:


 .   - palm mute                        () - ghost note(unless in trill)
 ~   - vibrato
 =   - hold bend; also acts as connecting device for hammers/pulls
-----------
 |  - bar
||  - double bar
||o - repeat start
o|| - repeat end
*|  - double bar (ending)
 :  - bar (freetime)
 $  - Segno
 &  - Coda

Tuning:
Gtr I   (Eb Ab Db Gb Bb Eb)
Gtr II  (Eb Ab Db Gb Bb Eb)
Gtr III (Eb Ab Db Gb Bb Eb)

 Gtr I
|-----------------|-----------------|-----------------|------------------|
|-----------------|-----------------|-----------------|------------------|
|-----------------|-----------------|-----------------|------------------|
|-----------------|-----------------|-----------------|------------------|
|-----------------|-----------------|-----------------|------------------|
|-5-0-4-0-3-0-2-0-|-4-0-3-0-2-0-1-0-|-5-0-4-0-3-0-2-0-|-4-0-3-0-2-0-1-0--|
  . . . . . . . .   . . . . . . . .   . . . . . . . .   . . . . . . . .

Gtrs I, II
|-----------------|-----------------|-----------------|-----------------|
|-----------------|-----------------|-----------------|-----------------|
|-----------------|-----------------|-----------------|-----------------|
|-----------------|-----------------|-----------------|-----------------|
|-----------------|-----------------|-----------------|-----------------|
|-5-0-4-0-3-0-2-0-|-4-0-3-0-2-0-1-0-|-5-0-4-0-3-0-2-0-|-4-0-3-0-2-0-1-0-|
  . . . . . . . .   . . . . . . . .   . . . . . . . .   . . . . . . . .

||------------------|-----------------|-----------------|-------------------||
||o-----------------|-----------------|-----------------|------------------o||
||------------------|-----------------|-----------------|-------------------||
||------------------|-----------------|-----------------|-------------------||
||o-----------------|-----------------|-----------------|------------------o||
||--5-0-4-0-3-0-2-0-|-4-0-3-0-2-0-1-0-|-5-0-4-0-3-0-2-0-|-4-0-3-0-2-0-1-0---||
    . . . . . . . .   . . . . . . . .   . . . . . . . .   . . . . . . . .

 Gtrs I, II
 |-3-| |-3-| |-3-| |-3-|   |-3-| |-3-| |-3-| |-3-|
|-------------------------|-------------------------|
|-------------------------|-------------------------|
|-------------------------|-------------------------|
|-7-7-7-7-7-7-7-7-7-7-7-7-|-8-8-8-8-8-8-8-8-8-8-8-8-|
|-7-7-7-7-7-7-7-7-7-7-7-7-|-8-8-8-8-8-8-8-8-8-8-8-8-|
|-5-5-5-5-5-5-5-5-5-5-5-5-|-6-6-6-6-6-6-6-6-6-6-6-6-|


 Gtr I
  |-3-| |-3-| |-3-| |-3-|
|-------------------------|-------------------------------|
|-------------------------|-------------------------------|
|-------------------------|----------------------7h==8----|
|-7-7-7-7-7-7-7-7-7-7-7-7-|------------6s==7--------------|
|-7-7-7-7-7-7-7-7-7-7-7-7-|-------------------------------|
|-5-5-5-5-5-5-5-5-5-5-5-5-|-6-----------------------------|


 Gtr II
  |-3-| |-3-| |-3-| |-3-|   |-3--| |--3--| |-3-| |--3--|
|-------------------------|-------------------------------
|-------------------------|-------------------------------
|-------------------------|-------------------------------
|-7-7-7-7-7-7-7-7-7-7-7-7-|-8--8-8-8-8---8-8-8-8-8-8---8--
|-7-7-7-7-7-7-7-7-7-7-7-7-|-8--8-8-8-8---8-8-8-8-8-8---8--
|-5-5-5-5-5-5-5-5-5-5-5-5-|-6--6-6-6-6---6-6-6-6-6-6---6--


 Gtrs I, II
  |-3-| |-3-| |-3-| |-3-|   |-3-| |-3-| |-3-| |-3-|
|-------------------------|-------------------------|
|-------------------------|-------------------------|
|-------------------------|-------------------------|
|-7-7-7-7-7-7-7-7-7-7-7-7-|-8-8-8-8-8-8-8-8-8-8-8-8-|
|-7-7-7-7-7-7-7-7-7-7-7-7-|-8-8-8-8-8-8-8-8-8-8-8-8-|
|-5-5-5-5-5-5-5-5-5-5-5-5-|-6-6-6-6-6-6-6-6-6-6-6-6-|


 Gtr I
  |-3-| |-3-| |-3-| |-3-|
|-------------------------|---------------------------------|
|-------------------------|---------------------------------|
|-------------------------|------------------------7h==8----|
|-7-7-7-7-7-7-7-7-7-7-7-7-|--------------6s==7--------------|
|-7-7-7-7-7-7-7-7-7-7-7-7-|---------------------------------|
|-5-5-5-5-5-5-5-5-5-5-5-5-|--6------------------------------|


 Gtr II
  |-3-| |-3-| |-3-| |-3-|    |--3--| |--3--| |-3-| |--3--|
|-------------------------|---------------------------------|
|-------------------------|---------------------------------|
|-------------------------|---------------------------------|
|-7-7-7-7-7-7-7-7-7-7-7-7-|--8---8-8-8-8---8-8-8-8-8-8---8--|
|-7-7-7-7-7-7-7-7-7-7-7-7-|--8---8-8-8-8---8-8-8-8-8-8---8--|
|-5-5-5-5-5-5-5-5-5-5-5-5-|--6---6-6-6-6---6-6-6-6-6-6---6--|

 Gtr III                     ~~~~
|-------------------------|---------------------------------|
|-------------------------|---------------------------------|
|-------------------------|-[9]\----------------------------|
|-------------------------|---------------------------------|
|-------------------------|---------------------------------|
|-------------------------|---------------------------------|


  Gtrs I, II
||------------------|-----------------|-----------------|-------------------||
||o-----------------|-----------------|-----------------|------------------o||
||------------------|-----------------|-----------------|-------------------||
||------------------|-----------------|-----------------|-------------------||
||o-----------------|-----------------|-----------------|------------------o||
||--5-0-4-0-3-0-2-0-|-4-0-3-0-2-0-1-0-|-5-0-4-0-3-0-2-0-|-4-0-3-0-2-0-1-0---||
    . . . . . . . .   . . . . . . . .   . . . . . . . .   . . . . . . . .


 Gtr I
      |-3-|     |-3-|       |-3-|  |---3---|
|---------------------|----------------------|
|---------------------|----------------------|
|-9---------9---------|-9---------10-10---10-|
|-7---------7---------|-7----------8--8----8-|
|-7---0-0-0-7---0-0-0-|-7---0-0-0--8--8----8-|
|---------------------|----------------------|
      . . .     . . .       . . .
 
 Gtr II
      |-3-|     |-3-|       |-3-|
|---------------------|----------------------|
|---------------------|----------------------|
|---------------------|----------------------|
|---------------------|------------8----8----|
|-7p5-0-0-0-7p5-0-0-0-|-7p5-0-0-0--8----8----|
|---------------------|------------6----6----|
      . . .     . . .       . . .
     
      |-3-|     |-3-|
|---------------------|--------------|
|---------------------|--------------|
|-9---------9---------|--------------|
|-7---------7---------|-7--6--5--4---|
|-7---0-0-0-7---0-0-0-|-7--6--5--4---|
|---------------------|-5--4--3--2---|
      . . .     . . .
  
      |-3-|     |-3-|
|---------------------|--------------|
|---------------------|--------------|
|---------------------|--------------|
|---------------------|-7--6--5--4---|
|-7p5-0-0-0-7p5-0-0-0-|-7--6--5--4---|
|---------------------|-5--4--3--2---|
      . . .     . . .
     
      |-3-|     |-3-|       |-3-|  |---3---|
|---------------------|----------------------|
|---------------------|----------------------|
|-9---------9---------|-9---------10-10---10-|
|-7---------7---------|-7----------8--8----8-|
|-7---0-0-0-7---0-0-0-|-7---0-0-0--8--8----8-|
|---------------------|----------------------|
      . . .     . . .       . . .

      |-3-|     |-3-|       |-3-|
|---------------------|----------------------|
|---------------------|----------------------|
|---------------------|----------------------|
|---------------------|------------8----8----|
|-7p5-0-0-0-7p5-0-0-0-|-7p5-0-0-0--8----8----|
|---------------------|------------6----6----|
      . . .     . . .       . . .

      |-3-|     |-3-|
|---------------------|--------------
|---------------------|--------------
|-9---------9---------|--------------
|-7---------7---------|-7--6--5--4---
|-7---0-0-0-7---0-0-0-|-7--6--5--4---
|---------------------|-5--4--3--2---
      . . .     . . .
 

      |-3-|     |-3-|
|---------------------|--------------|
|---------------------|--------------|
|---------------------|--------------|
|---------------------|-7--6--5--4---|
|-7p5-0-0-0-7p5-0-0-0-|-7--6--5--4---|
|---------------------|-5--4--3--2---|
      . . .     . . .

        |-3-|     |-3-|       |-3-|
||----------------------|-------------------|
||o---------------------|-------------------|
||--9---------9---------|-9---------10--10--|
||--7---------7---------|-7----------8---8--|
||o-7---0-0-0-7---0-0-0-|-7---0-0-0--8---8--|
||----------------------|-------------------|
        . . .     . . .       . . .

        |-3-|     |-3-|       |-3-|
||----------------------|-------------------|
||o---------------------|-------------------|
||----------------------|-------------------|
||----------------------|------------8---8--|
||o-7p5-0-0-0-7p5-0-0-0-|-7p5-0-0-0--8---8--|
||----------------------|------------6---6--|
        . . .     . . .       . . .

      |-3-|     |-3-|
|---------------------|------------------||
|---------------------|-----------------o||
|-9---------9---------|------------------||
|-7---------7---------|------------------||
|-7---0-0-0-7---0-0-0-|-----------------o||
|---------------------|-5p0-4p0-3p0-2p0--||
       . . .    . . .   . . . . . . . .

      |-3-|     |-3-|

|---------------------|------------------||
|---------------------|-----------------o||
|---------------------|------------------||
|---------------------|------------------||
|-7p5-0-0-0-7p5-0-0-0-|-----------------o||
|---------------------|-5p0-4p0-3p0-2p0--||
      . . .     . . .   . . . . . . . .


  Gtrs I, II
       |-3-|    |-3-|      |-3-|            |-3-|    |-3-|
||--------------------|----------------|-------------------|-------------||
||o-------------------|----------------|-------------------|------------o||
||--------------------|----------------|-------------------|-------------||
||--7--------7--------|-7--------5--5--|-7--------7--------|-------------||
||o-5--0-0-0-5--0-0-0-|-5--0-0-0-5--5--|-5--0-0-0-5--0-0-0-|-7--5--8----o||
||--------------------|----------3--3--|-------------------|-5--3--6-----||
       . . .    . . .      . . .            . . .    . . .

  Gtr I
        |-3-|     |-3-|       |-3-|
||----------------------|-------------------|
||o---------------------|-------------------|
||--9---------9---------|-9---------10--10--|
||--7---------7---------|-7----------8---8--|
||o-7---0-0-0-7---0-0-0-|-7---0-0-0--8---8--|
||----------------------|-------------------|
        . . .                 . . .

  Gtr II
        |-3-|     |-3-|       |-3-|
||----------------------|-------------------|
||o---------------------|-------------------|
||----------------------|-------------------|
||----------------------|------------8---8--|
||o-7p5-0-0-0-7p5-0-0-0-|-7p5-0-0-0--8---8--|
||----------------------|------------6---6--|
        . . .     . . .       . . .

      |-3-|     |-3-|
|---------------------|------------------||
|---------------------|-----------------o||
|-9---------9---------|------------------||
|-7---------7---------|------------------||
|-7---0-0-0-7---0-0-0-|-----------------o||
|---------------------|-5p0-4p0-3p0-2p0--||
      . . .     . . .   . . . . . . . .

      |-3-|     |-3-|

|---------------------|------------------||
|---------------------|-----------------o||
|---------------------|------------------||
|---------------------|------------------||
|-7p5-0-0-0-7p5-0-0-0-|-----------------o||
|---------------------|-5p0-4p0-3p0-2p0--||
      . . .     . . .   . . . . . . . .

 Gtrs I, II
|-----------------|-----------------|-----------------|
|-----------------|-----------------|-----------------|
|-----------------|-----------------|-----------------|
|-----------------|-----------------|-----------------|
|-----------------|-----------------|-----------------|
|-4-0-3-0-2-0-1-0-|-5-0-4-0-3-0-2-0-|-4-0-3-0-2-0-1-0-|
  . . . . . . . .   . . . . . . . .   . . . . . . . .

|-----------------|-----------------|-----------------|
|-----------------|-----------------|-----------------|
|-----------------|-----------------|-----------------|
|-----------------|-----------------|-----------------|
|-----------------|-----------------|-----------------|
|-5-0-4-0-3-0-2-0-|-4-0-3-0-2-0-1-0-|-5-0-4-0-3-0-2-0-|
  . . . . . . . .   . . . . . . . .   . . . . . . . . 

|-------------|------------|------------|--------|
|-------------|------------|------------|--------|
|-------------|------------|------------|--------|
|-------------|------------|------------|--------|
|-6--5--4--3--|-(3)--------|-(3)--------|-(3)----|
|-4--3--2--1--|-(1)--------|-(1)--------|-(1)----|


|-------------|------------|------------|--------|
|-------------|------------|------------|--------|
|-------------|------------|------------|--------|
|-------------|------------|------------|--------|
|-6--5--4--2--|-(2)--------|-(2)--------|-(2)----|
|-4--3--2--0--|-(0)--------|-(0)--------|-(0)----|


|-------------|------------|------------|--------|
|-------------|------------|------------|--------|
|-------------|------------|------------|--------|
|-------------|------------|------------|--------|
|-6--5--4--3--|-(3)--------|-(3)--------|-(3)----|
|-4--3--2--1--|-(1)--------|-(1)--------|-(1)----|


                  |----------3----------|
||--------------|-------------------------|
||o-------------|-------------------------|
||--------------|-------------------------|
||--------------|-------------------------|
||o-6--5--4--2--|-------------------------|
||--4--3--2--0--|-0-0-0-0-0-0-0-0-0-0-0-0-|


  |----------3----------|   |-------3-------|
|-------------------------|----------------------|
|-------------------------|----------------------|
|-------------------------|----------------------|
|-------------------------|----------------------|
|-------------------------|----------------------|
|-0-0-0-0-0-0-0-0-0-0-0-0-|-0-0-0-0-0-0-0-0-0----|


                |----------3----------|
|-------------|-------------------------|
|-------------|-------------------------|
|-------------|-------------------------|
|-------------|-------------------------|
|-6--5--4--3--|-------------------------|
|-4--3--2--1--|-1-1-1-1-1-1-1-1-1-1-1-1-|


  |----------3----------|   |-------3-------| 4X's
|-------------------------|--------------------||
|-------------------------|-------------------o||
|-------------------------|--------------------||
|-------------------------|--------------------||
|-------------------------|-------------------o||
|-1-1-1-1-1-1-1-1-1-1-1-1-|-1-1-1-1-1-1-1-1-1--||


|-------------------|----------|----------|----------|------|------|
|-------------------|----------|----------|----------|------|------|
|-------------------|----------|----------|----------|------|------|
|----------2--------|----------|----------|----------|------|------|
|-6--5--4--2--------|-2--2--2--|-2--2--2--|-2--2--2--|-2----|------|
|-4--3--2--0--------|-0--0--0--|-0--0--0--|-0--0--0--|-0----|------|
                      .  .  .    .  .  .    .  .  . 
 
|-----------------|-----------------|-----------------|-----------------|
|-----------------|-----------------|-----------------|-----------------|
|-----------------|-----------------|-----------------|-----------------|
|-----------------|-----------------|-----------------|-----------------|
|-----------------|-----------------|-----------------|-----------------|
|-5-0-4-0-3-0-2-0-|-4-0-3-0-2-0-1-0-|-5-0-4-0-3-0-2-0-|-4-0-3-0-2-0-1-0-|
  . . . . . . . .   . . . . . . . .   . . . . . . . .   . . . . . . . . 

                    |-------3-------|   |-------3-------|
|-------------||------------------------------------------|
|-------------||o-----------------------------------------|
|-------------||--9-------------------9-------------------|
|-8--8--8--8--||--9-------------------9-------------------|
|-8--8--8--8--||o-7-------------------7-------------------|
|-6--6--6--6--||----7-7-7-8-8-8-7-7-----7-7-7-8-8-8-7-7---|

    |-------3-------|
|-----------------------------|
|-----------------------------|
|-9---------------------------|
|-9-------------------8-8-8-8-|
|-7-------------------8-8-8-8-|
|---7-7-7-8-8-8-7-7---6-6-6-6-|


    |-------3-------|   |-------3-------|     |-------3-------|
|-----------------------------------------|------------------------------||
|-----------------------------------------|-----------------------------o||
|-9-------------------9-------------------|-9----------------------------||
|-9-------------------9-------------------|-9-------------------8-8-8-8--||
|-7-------------------7-------------------|-7-------------------8-8-8-8-o||
|---7-7-7-8-8-8-7-7-----7-7-7-8-8-8-7-7---|---7-7-7-8-8-8-7-7---6-6-6-6--||


|------------|
|------------|
|-9----------|
|-9----------|
|-7----------|
|------------|





Comments


Popular Cannibal Corpse tabs & chords
Hammer Smashed Face 3 Bass Tabs
A Skull Full Of Maggots 1 Tabs
Carnivorous Swarm Tabs
Covered With Sores 1 Tabs
Ecstacy In Decay 1 Tabs
Edible Autopsy Tabs
Meathook Sodomy Tabs
Psychotic Precision Tabs
Purification By Fire Tabs
Sentenced To Burn 2 Tabs


Song lyrics



↑ Back to top | Tablatures and chords are parodies/interpretations of the original songs. You may use it for private study, scholarship, research or language learning purposes only
© 2014 AZChords.com Contact us | Privacy policy | DMCA | Add/correct tabs | Request tabs | Top 50 tabs