» » »

Addicted To Vaginal Skin Tabs (ver.2)

Artists:  A B C D E F G H I J K L M N O P Q R S T U V W X Y Z # 

Addicted To Vaginal Skin Tabs (ver.2)

Cannibal Corpse
Rating:
0/5 (0 votes)

Hard to play? Try these video lessons and learn fast.
                Cannibal Corpse
Tomb of the Mutilated
Addicted To Vaginal Skin

Copyright (c)  Metal Blade Records 1992
Version 1.2 - 20.02.2010



.  - palm mute           /  - slide up to
\  - slide down to       ~  - vibrato
h  - hammer on           b  - Bend
p  - pull off            Suffixes for bend
t  - tap                 f  - full bend    h - half bend
ph - pinched harmonic    q  - quarter bend t - tap bend
*  - see comment         ^  - Hold bend    r release bend
x  - Stuccatto           ~  - vibrato bend rb - reverse bend
,  - slight palm mute    () - ghost note, sustained note
"  - tremolo note        <> - Trill

Tuning D# G# C# F# A# D#

Both guitars
Riff A1 x8      Riff A2 x4
D#|------------|--------------|
A#|------------|--------------|
F#|------------|--------------|
C#|-2---1------|-2---1--------|
G#|---1---3-1--|---1-1-3-1----|
D#|---------1--|---------1----|
      .   . .      .   . .


Both guitars continue
Riff B x4
D#|---------------------------------------|
A#|---------------------------------------|
F#|---------------------------------------|
C#|---------------------------------------|
G#|---------------------------------------|
D#|-000-000-000-000--4560-3450-2340-1230--|
    ... ... ... ...  .... .... .... ....


Riff C x4
D#|------------------------------------------|
A#|------------------------------------------|
F#|------------------------------------------|
C#|------------------------------------------|
G#|------------------------------------------|
D#|-2111-4111-2111-4111-2111-4111-2100-1100--|
    .... .... .... .... .... .... .... ....

Then play
Riff B x4
Riff C x2

End segment with
D#|--------------|
A#|--------------|
F#|--------------|
C#|--------------|
G#|--2-----------|
D#|--0-----------|

Bass part

Riff D x6
D#|---------------------------------------|
A#|---------------------------------------|
F#|---------------------------------------|
C#|--------------------------------7h10---|
G#|-77777777--------------6h9-7h10--------|
D#|---------66666666--6h9-----------------|

Break for growl

Riff D x2
Riff B x2
Riff C x2
Riff B x2

Riff E x1
D#|-----------------------------------------------|
A#|-----------------------------------------------|
F#|-----------------------------------------------|
C#|-----------------------------------------------|
G#|-222-2-2-2---222-2-2-2---222-2-2-2---222-2-2-2-|
D#|-000-0-0-0---000-0-0-0---000-0-0-0---000-0-0-0-|
    ,,, , , ,   ,,, , , ,   ,,, , , ,   ,,, , , ,

Riff A1 x8
Riff A2 x8

D#|--------------------------------------|
A#|--------------------------------------|
F#|--------------------------------------|
C#|--------------------------------------|
G#|-33------------77---66----------------|
D#|---22-00000000---66---88-000000000000-|

   --------------------------------------|
   --------------------------------------|
   --------------------------------------|
   --------------------------------------|
   -33------------77---66----------------|
   ---22-00000000---66---88-666666666666-|

   --------------------------------------|
   --------------------------------------|
   --------------------------------------|
   --------------------------------------|
   -33------------77---66----------------|
   ---22-00000000---66---88-000000000000-|

   --------------------------|
   --------------------------|
   --------------------------|
   --------------------------|
   -66------------77---66----|
   ---88-00000000---66---88--|


Riff D x7

Fill x1
D#|-----------------|
A#|-----------------|
F#|-----------------|
C#|-----------------|
G#|-----------------|
D#|-000-000-000-000-|
    ... ... ... ...


Riff E x1

Riff G x8 (under solo)
D#|------------------------|
A#|------------------------|
F#|------------------------|
C#|------------------------|
G#|-33---------33----1111--|
D#|----22-0000----22-------|

Riff H x4
D#|------------------------------------------------|
A#|------------------------------------------------|
F#|------------------------------------------------|
C#|-10p7p0-----------------------------------------|
G#|--------10p7p0------------9p6p0-----------------|
D#|---------------00000000---------9p6p0-66666666--|

Riff I x4(fast)                     End with
D#|--------------------------------|----------|
A#|--------------------------------|----------|
F#|--------------------------------|----------|
C#|-------------------------7h10---|----------|
G#|-7777-----------6h9-7h10--------|--2-------|
D#|------6666--6h9-----------------|--0-------|

END
            
Hard to play? Try these video lessons and learn fast. | Correct




comments powered by Disqus
↑ Back to top | Tablatures and chords are parodies/interpretations of the original songs. You may use it for private study, scholarship, research or language learning purposes only